Temper (System of a Down) Acordes


Tamaño de la fuente

-A
+A

BAJAR UN TONO BAJAR UN SEMI-TONO SUBIR UN SEMI-TONO SUBIR UN TONO PARTIR PANTALLA EN VERTICAL PARTIR PANTALLA EN VERTICAL ¡Ayuda!
Intro Solo (0:12)
1|------------------------------------------------------3h4--3h4
2|---------------------------------------------4-2--6-4----------2-1-1-2-2-1
3|--------------------3h5-3h5-3-----3--3h5-3h5---------------
4|---6--6-5-3--3-5--5-----------6-6---

1|----------------
2|-----------(2-1)    ( ) = repeat

Chorus (1:04)(1:42)(2:40)
5|-5-0-5-0-3-5
6|-5-0-5-0-3-5

Bridge (1:49)
1|--------------------------------------------------------------------------
2|-----1-3--1-1-------------------------2h3-3-4-4h6-4-1-3-4-3b-0-1-3-1-1-4-3
3|-3-3-------3--3-2-3-2-0--0-2-3-3/5-2--------------------------------3-----

Solo (2:19)
1|-------3-2---2---|
2|-0-3-4-----4---4-|


¡Siguiente!

Toca una Canción al Azar de System of a Down

Inicia Sesión para guardar
esta versión como favorita

DESCARGAS:
Descargar
(Temper.pdf)


Aún no hay comentarios, ¡escribe el primero!

Escribe un comentario o pregunta sobre esta canción:






Más canciones de System of a Down

Atwa 2
Streamline
Kill The Assholes
Chic N' Stu
Dreaming
Question !
Link, He Come To Town
Temper
Marmelade
Friik!!
Blue
Suite-Pee
Forest
Needles
War?
Bring Your Own Bombs
Suitpee
Outer space
Lonely Day
Peephole

ABRIR ACORDES

Nuestro servidor se demoró 0.02 segundos en generar esta página. Eso fue realmente muy rápido!