La vaca 1 (Acordes)

4 Pesos de Propina

Subida por rardFaila

Compartir


Cambiar Cifrado
Americano Latino

Cambiar Tonalidad
-1 +1
Imprimir FAQ
+A
-A

Texto

Desplazamiento

Transportador

Color de Fondo

Archivos

TONALIDAD, TAMAÑO, CIFRADO, SCROL.

Nos renovamos: Ahora puedes cambiar TODO haciendo clic en ICONO de la Guitarra () que aparece en la parte inferior de esta página.


LETRA CON ACORDES

C#7

e|---|
B|-2-|
G|-4-|
D|-3-|
A|-4-|
E|---|

[INTRO] F#m-Bm-F#m-C#7

e|-9~~---------9---------9------------------9-----------
B|-----12-10-12-----------12-10-12~----10-12---12-10----
G|---------------11~---11------------11-------------11~-
D|------------------------------------------------------
A|------------------------------------------------------
E|------------------------------------------------------

e|----------------------------9~---9-12~---------|
B|--------10-1212--10-12-10-12-----------13-12~~-|
G|-1111-11---------------------------------------|
D|-----------------------------------------------|
A|-----------------------------------------------|
E|-----------------------------------------------|

[VERSO]

F#m                    Bm                   F#m
Cuentan nuestros antepasados que antes del arado
                 C#7                        F#m
y de la plantación pastabamos por cualquier lado
                  Bm                 F#m
como un ritual sagrado, el campo desolado
               C#7
era una bendición

[PUENTE]

G           F#         G       F#
Pero un mal día todo eso cambió
G          F#             E7
llegó la estancia y el patrón y la carnicería!...

los G los hace así

e|--------|
B|--------|
G|--------|
D|--------|
A|-55-4-5-|
E|-33-2-3-|

[VERSO]

Metros y metros de alambrado, pasamo´ a ser ganado
carne de exportación, plata para el estanciero
cuero para el zapatero, leche pa´l lechero
entonces alguien exclamó:

[PUENTE]

"Toro con huevo no es toro capón
vaca sin marca es libertad dispuesta a dar pelea!"...

BASE: F#m-Bm-F#m-C#7 x2

e|---------9-10-10-9-----------9-----------|--|
B|---10~-12---------12----10-12-------9-12-|--|
G|-11-------------------11-------10-11-----|x2|
D|-----------------------------------------|x2|
A|-----------------------------------------|--|
E|-----------------------------------------|--|

[VERSO]

Dijo: "No soy vaca cualquiera, soy carne de primera
me salgo del corral, abierta la tranquera
saludo a mis lecheras, no aguanto mas la espera
me voy pa´ Libertad"

[PUENTE]

Como en la India quiero caminar
vaca sagrada del amor dispuesta a dar pelea!...

[ESTRIBILLO]

Am                  E7               Am
Voy caminando como vaca y ya no me atrapan
                   E7
no vuelvo pa´l corral
Am                  E7               Am
voy caminando como vaca y ya no me atrapan
                   E7
no vuelvo pa´l corral...

[VERSO]

Tengo los cuernos afilados, los ojos de costado
para poder mirar quién viene por cualquier lado
si es vaca o ser humano, quién se come el asado
quién es el familiar

[PUENTE]

Ya somos miles y vienen muchos más
rumiando juntos la canción dispuestos a dar pelea!...

[ESTRIBILLO]

Voy caminando como vaca y ya no me atrapan
no vuelvo pa´l corral
Voy caminando como vaca y ya no me atrapan
no vuelvo pa´l corral
Voy caminando como vaca y ya no me atrapan
no vuelvo pa´l corral
Voy caminando como vaca y ya no me atrapan
no vuelvo pa´l corral...

[FINAL]

[FINAL] F#m-Bm-F#m-C#7 x2

e|---------9-10-10-9-----------9-----------|--|
B|---10~-12---------12----10-12-------9-12-|--|
G|-11-------------------11-------10-11-----|x2|
D|-----------------------------------------|x2|
A|-----------------------------------------|--|
E|-----------------------------------------|--|

Termina en F#m



cualquier cosa me mandan mail a
[email protected]
aguante el rock n´ roll y nada más!
cuanto tarado que no entiende y te la quiere contar!


Video Clip de La vaca 1


ACORDES PARA GUITARRA

PIANO UKELELE
C#7
F#m
Bm
G
F#
E7
Am


TOP 20: Las más tocadas de 4 Pesos de Propina


Acordes

Cerrar
C#7
F#m
Bm
G
F#
E7
Am

13.03

x

79