Lo que más lo que menos (Acordes)

4 Pesos de Propina

Subida por jose69

Compartir


Cambiar Cifrado
Americano Latino

Cambiar Tonalidad
-1 +1
Imprimir FAQ
+A
-A

Texto

Desplazamiento

Transportador

Color de Fondo

Archivos

TONALIDAD, TAMAÑO, CIFRADO, SCROL.

Nos renovamos: Ahora puedes cambiar TODO haciendo clic en ICONO de la Guitarra () que aparece en la parte inferior de esta página.


LETRA CON ACORDES

este tema es hablado y difícil de "acomodar" a la tablatura
así que les dejo la letra y abajo la tablatura
ustedes fijense los tiempos



Lo que más me gusta de la ciudad, decía,
es arriba, el cielo donde vuelo...

Lo que menos me gusta de la ciudad, decía,
es la avenida donde la vida pasa o se detiene
según verde o roja sea la luz
sin mirar para arriba la que importa, la amarilla,
que brilla en el cielo donde vuelo...

Porque lo que más me gusta de la ciudad decía...
es arriba...



e|----------------------------------------
B|----------------------------------------
G|--0-------1~~-----5~--4~---5~~----------
D|---2~~~--------------------------3-6~~--
A|-3--------------/6---5-----6~~--5-------
E|----------------------------------------

e|----------------------------------------
B|----------------------------------------
G|----5----4-----5-----4--555-444-222-444-
D|---6-6--5-5---6-6---5-5-666-555-333-555-
A|-/6----5----/6-----5----666-555-333-555-
E|----------------------------------------

e|--------------------|
B|-----------------3~-|
G|-0~~~---1~~------4~-|
D|-2~~~---------3/5~--|
A|-3~~~---------------|
E|--------------------|



cualquier cosa me mandan mail a
[email protected]
aguante el rock n´ roll y nada más!
cuanto tarado que no entiende y te la quiere contar!


Video Clip de Lo que más lo que menos


ACORDES PARA GUITARRA

PIANO UKELELE


TOP 20: Las más tocadas de 4 Pesos de Propina


Acordes

Cerrar

12.20

x

64