c ▷ O NOME DESSA RUA: (Acústicos & Valvulados) Acordes para Guitarra, Piano & Ukelele

O Nome Dessa Rua (Acordes)

Acústicos & Valvulados

Subida por vicmanuel

Compartir


Imprimir FAQ
+A
-A

Texto

Desplazamiento

Transportador

Color de Fondo

Archivos

-A
+A
          B     D        E              F#
Pa-ra-ru-a-pa           pa-ru-ru-a
          B     D        E              F#
Pa-ra-ru-a-pa           pa-ru-ru-a
          B  D  E    F#
pa-ra-ru-a-na-na-na
          B     D        E              F#
Pa-ra-ru-a-pa           pa-ru-ru-a

   B          E      A    F#
O nome dessa rua agora eu sei
     B         E     A          F#
Por onde você vai de onde você vem
   B                 E             A    F#
É lá que um dia eu quero te encontrar
     B         E       A             F#
Por onde você foi? o quanto eu já andei?
  B         E           A       F#
Acendo uma vela prá avisar
 B              E     A         F#
Beijo o teu retrato, piso no espaço
 B            E           A     F#
Vejo tudo o que posso ganhar
   B          E            A          F#
E peço muito mais do bem que você me traz

    A           B  E
Na rua da conquista
    A         B  E
Travessa paraíso
 A             B
Sigo, faço e digo
           C#m                F#
Invento o que não foi escrito

solo(2x)


e|----------------------------------------------------------------
b|----------------------------------------------------------------
g|---3--6--------6h8-6h8-6-------3--6-------6h8--6h8--------------
d|---------8--6------------8--6--------8--6-----------8--6--------
a|----------------------------------------------------------------
e|----------------------------------------------------------------

As notas estão certas, mas ele toca de um modo diferente.
_______________________________________________________________


tablatura
-=======-

intro
g|---------------------|---------------------|-----------------|---------------------|
d|---------------------|---------------------|-----------------|---------------------|
a|-2-2-5-5-7-7---------|-2-2-5-5-7-7---------|-2--5--7---------|-2-2-5-5-7-7---------|
e|-------------2--2-2--|-------------2--2-2--|---------2--2-2--|-------------2--2-2--|

Riff 1
g|---------------------------------------------------|
d|---------------------------------------------------|
a|-2-2-----------------------------------------------|
e|-----0-0-5-2--2-2----------------------------------|8x

Riff 2
g|-------------------|-------------------|-----------------------------|
d|-------------------|-------------------|-----------------------------|
a|---------7--7-7-7--|---------7--7-7-7--|-----------------------------|
e|-5-5-7-7-----------|-5-5-7-7-----------|-5-5-7-7-9-9-9-9-9-9---------|2x




intro
Riff 1
Riff 2
(teclado)
intro
Riff 1
Riff 2
(solo guita)
Riff 2 - 4x
Intro - 5x  termina em: a|-2-2-|


Video Clip de O Nome Dessa Rua


ACORDES PARA GUITARRA

PIANO UKELELE
B
D
E
F#
A
C#m


TOP 20: Las más tocadas de Acústicos & Valvulados


Acordes

Cerrar
B
D
E
F#
A
C#m

16.06

x

261