Dia Branco (Acordes)

Alceu Valença

Subida por quetzal0219

Compartir


Cambiar Cifrado
Americano Latino

Cambiar Tonalidad
-1 +1
Imprimir FAQ
+A
-A

Texto

Desplazamiento

Transportador

Color de Fondo

Archivos

TONALIDAD, TAMAÑO, CIFRADO, SCROL.

Nos renovamos: Ahora puedes cambiar TODO haciendo clic en ICONO de la Guitarra () que aparece en la parte inferior de esta página.


LETRA CON ACORDES

INTRODUÇÃO:

   (F# G# F#)
e|-9-11-12-s14-12-11-12-11-9-s11-9-7-9-7-6---6-9-8---6-|
B|-----------------------------------------7-------9---|
G|-----------------------------------------------------|
D|-----------------------------------------------------|
A|-----------------------------------------------------|
E|-----------------------------------------------------|

   (F# G# F#)
e|-9-11-12-s14-12-11-12-11-9-s11-9-7-9-7-6---6-9-8-----|
B|-----------------------------------------7-------9-7-|
G|-----------------------------------------------------|
D|-----------------------------------------------------|
A|-----------------------------------------------------|
E|-----------------------------------------------------|

F#
Deusa da noite

Sangrenta e fria
         E
Irmã da lua
           C#         F#
Mulher da noite e do dia

Eu vim de longe

Atrás de brisa
          E
Com sete pedras
          C#      F#
Bordei a minha camisa
           B5             F#5
Pra ver a doida das lantejoulas
            B5             F#5
Dos lábios verdes de purpurina
           B5               F#5
Dançar na noite nos quatro cantos
           B5            F#5
Com seu vestido de bailarina
         B              F#
Fazer o riso, tremer o medo
         B             F#
Fazer o medo, virar sorriso
             B**                F#**
Fazer da noite  dos quatro cantos
         B     C#      F#5
Um dia branco feito domingo


B** :797879
F#**:242324

Video Clip de Dia Branco


ACORDES PARA GUITARRA

PIANO UKELELE
F#
G#
E
C#
B5
F#5
B


TOP 20: Las más tocadas de Alceu Valença


Acordes

Cerrar
F#
G#
E
C#
B5
F#5
B

09.16

x

214