Girassol (Acordes)

Alceu Valença

Subida por hectoradolfo

Compartir


Cambiar Cifrado
Americano Latino

Cambiar Tonalidad
-1 +1
Imprimir FAQ
+A
-A

Texto

Desplazamiento

Transportador

Color de Fondo

Archivos

TONALIDAD, TAMAÑO, CIFRADO, SCROL.

Nos renovamos: Ahora puedes cambiar TODO haciendo clic en ICONO de la Guitarra () que aparece en la parte inferior de esta página.


LETRA CON ACORDES

[Intro 2x] C  Em  C  Em

Parte 1 de 2
   C
E|-------0----------------0-----------------|
B|---1-1-----1---1----1-1-----1---0---------|
G|-----0----------------0-------------------|
D|-------------2----------------0-----------|
A|-3-------3--------3-------3---------------|
E|------------------------------------------|

Parte 2 de 2
   Em
E|-------3----------------3-----------------|
B|---0-0-----0---0----0-0-----0---0---------|
G|-----0----------------0-------------------|
D|-2-------2---0----2-------2---0-----------|
A|------------------------------------------|
E|------------------------------------------|

[Solo Intro]

Parte 1 de 2
E|----------------------------------------------------|
B|----------------------------------------------------|
G|-5p4-5p4-5p4-5p4-5p4-5p4-5p4-5p4--7/9---------------|
D|----------------------------------------------------|
A|----------------------------------------------------|
E|----------------------------------------------------|

Parte 2 de 2
E|----------------------------------------------------|
B|----------------------------------------------------|
G|-5p4-5p4-5p4-5p4-5p4-5p4--7/9-7-5-4-----------------|
D|----------------------------------------------------|
A|----------------------------------------------------|
E|----------------------------------------------------|


[Refrão]

 C     Em
Mar e Sol
 C
Gira, gira, gira
                              Em
Gira, gira, gira, gira, girassol

 C     Em
Mar e Sol
 C
Gira, gira, gira
                              Em
Gira, gira, gira, gira, girassol

[Primeira Parte]

Parte 1 de 4
   C
E|-------0----------------0-----------------|
B|---1-1-----1---1----1-1-----1---0---------|
G|-----0----------------0-------------------|
D|-------------2----------------0-----------|
A|-3-------3--------3-------3---------------|
E|------------------------------------------|

Parte 2 de 4
   Em
E|-------3----------------3-----------------|
B|---0-0-----0---0----0-0-----0---0---------|
G|-----0----------------0-------------------|
D|-2-------2---0----2-------2---0-----------|
A|------------------------------------------|
E|------------------------------------------|

Repete Parte 1 de 4   
   C
E|-------0----------------0-----------------|
B|---1-1-----1---1----1-1-----1---0---------|
G|-----0----------------0-------------------|
D|-------------2----------------0-----------|
A|-3-------3--------3-------3---------------|
E|------------------------------------------|

Repete Parte 2 de 4
   Em
E|-------3----------------3-----------------|
B|---0-0-----0---0----0-0-----0---0---------|
G|-----0----------------0-------------------|
D|-2-------2---0----2-------2---0-----------|
A|------------------------------------------|
E|------------------------------------------|

Parte 3 de 4
   F
E|-------1----------------1-----------------|
B|---1-1-----1---1----1-1-----1---1---------|
G|-----2----------------2-------------------|
D|---------3---3------------3---3-----------|
A|------------------------------------------|
E|-1----------------1-----------------------|

Parte 4 de 4
   Em                                 F  G
E|-------0----------------0-----------1--3--|
B|---0-0-----0---0----0-0-----0---0---1--3--|
G|-----0----------------0-------------2--4--|
D|-------------2----2-------2---0-----------|
A|------------------------------------------|
E|-0-------3--------------------------1--3--|

C                           Em
  Um girassol nos teus cabelos
C                       Em
  Batom vermelho, girassol
   F              Em
Morena flor do desejo
F         G              (C  Em  C  Em)
Ah, teu cheiro em meu lençol

C                           Em
  Um girassol nos teus cabelos
C                       Em
  Batom vermelho, girassol
   F              Em
Morena flor do desejo
F         G               C
Ah, teu cheiro em meu lençol


[Segunda Parte]

Parte 1 de 4
   Am
E|-------0----------------0-----------------|
B|---1-1-----1---1----1-1-----1---1---------|
G|-----2----------------0-------------------|
D|-------------2----------------2-----------|
A|-0-------3--------0-------3---------------|
E|------------------------------------------|

Parte 2 de 4
   Em
E|-------0----------------0-----------------|
B|---0-0-----0---0----0-0-----0---0---------|
G|-----0----------------0-------------------|
D|------------------------------------------|
A|-------------2----------------2-----------|
E|-0-------3--------0-------3---------------|

Repete Parte 3 de 4
   F
E|-------1----------------1-----------------|
B|---1-1-----1---1----1-1-----1---1---------|
G|-----2----------------2-------------------|
D|---------3---3------------3---3-----------|
A|------------------------------------------|
E|-1----------------1-----------------------|

Repete Parte 3 de 4
  Em                                  F  G
E|-------0----------------0-----------1--3--|
B|---0-0-----0---0----0-0-----0---0---1--3--|
G|-----0----------------0-------------2--4--|
D|-------------2----2-------2---0-----------|
A|------------------------------------------|
E|-0-------3--------------------------1--3--|

 Am             Em
Desço pra rua, sinto saudade
 Am             Em
Gata selvagem, sou caçador
   F              Em
Morena flor do desejo
F         G        (C  Em  C  Em) (2x)
Ah, teu cheiro matador


[Segunda Parte]

 Am             Em
Desço pra rua, sinto saudade
 Am             Em
Gata selvagem, sou caçador
   F              Em
Morena flor do desejo
F         G        (C  Em  C  Em)
Ah, teu cheiro matador


[Refrão]

 C     Em
Mar e Sol
 C
Gira, gira, gira
                              Em
Gira, gira, gira, gira, girassol

 C     Em
Mar e Sol
 C
Gira, gira, gira
                              Em
Gira, gira, gira, gira, girassol

Video Clip de Girassol


ACORDES PARA GUITARRA

PIANO UKELELE
C
Em
F
G


TOP 20: Las más tocadas de Alceu Valença


Acordes

Cerrar
C
Em
F
G

13.45

x

132