La Belle de Jour / Girassol (pot-pourri) (Acordes)

Alceu Valença

Subida por Orlandoraul

Compartir


Cambiar Cifrado
Americano Latino

Cambiar Tonalidad
-1 +1
Imprimir FAQ
+A
-A

Texto

Desplazamiento

Transportador

Color de Fondo

Archivos

TONALIDAD, TAMAÑO, CIFRADO, SCROL.

Nos renovamos: Ahora puedes cambiar TODO haciendo clic en ICONO de la Guitarra () que aparece en la parte inferior de esta página.


LETRA CON ACORDES

[Intro] C  Em  C  Em

C    Em   C   Em
Ah, hei.. ah, hei

(Am  Em  Am  Em)

F   G              C   Em  C  Em
Ah,   La Belle de Jour

C  Em  C  Em )

C    Em   C   Em
Ah, hei.. ah, hei

    C
Eu lembro da moça bonita
             Em
Da praia de Boa Viagem
     C
E a moça no meio da tarde
                Em
De um domingo azul
  Am
Azul era Belle de Jour
               Em
Era a bela da tarde
     F
Seus olhos azuis como a tarde
    G
Na tarde de um domingo azul
             C   Em  C  Em
La Belle de Jour

    C
Eu lembro da moça bonita
             Em
Da praia de Boa Viagem
     C
E a moça no meio da tarde
                Em
De um domingo azul
  Am
Azul era Belle de Jour
               Em
Era a bela da tarde
     F
Seus olhos azuis como a tarde
    G
Na tarde de um domingo azul
             C
La Belle de Jour

          Am
Belle de Jour
          Em
Belle de Jour

    Am
La Belle de Jour

Era a moça mais linda
    Em
De toda a cidade
   Am
E foi justamente pra ela
                                Em
Que eu escrevi o meu primeiro blues
     F
Mas Belle de Jour
            Em
No azul viajava
     F
Seus olhos azuis como a tarde
    G
Na tarde de um domingo azul
             C   Em
La Belle de Jour

C    Em   C   Em
Ah, hei.. ah, hei

C    Em   C   Em
Ah, hei.. ah, hei

    C
Eu lembro da moça bonita
             Em
Da praia de Boa Viagem
     C
E a moça no meio da tarde
                Em
De um domingo azul
  Am
Azul era Belle de Jour
               Em
Era a bela da tarde
     F
Seus olhos azuis como a tarde
    G
Na tarde de um domingo azul
             C   Em
La Belle de Jour

          Am
Belle de Jour
          Em
Belle de Jour

    Am
La Belle de Jour

Era a moça mais linda
    Em
De toda a cidade
   Am
E foi justamente pra ela
                                Em
Que eu escrevi o meu primeiro blues
     F
Mas Belle de Jour
            Em
No azul viajava
     F
Seus olhos azuis como a tarde
    G
Na tarde de um domingo azul
             C   Em
La Belle de Jour

C    Em   C   Em
Ah, hei.. ah, hei
C    Em   C   Em
Ah, hei

C  Em  C  Em )
Am  Em  F  G )

E|---------8-8-8-8-8--8-8-10-7---------------|
B|--8--10-----------------------8/10-8-8/0---|
G|-------------------------------------------|
D|-------------------------------------------|
A|-------------------------------------------|
E|-------------------------------------------|

E|--12--10-----------------------------------|
B|-------------------------------------------|
G|----------9--7--5--5-5h7-4-----------------|
D|----------------------------5h7-5/7/5------|
A|-------------------------------------------|
E|-------------------------------------------|

E|--------5-7-5-7-8-7-8/12---12p10/7---------|
B|------5------------------------------------|
G|----5--------------------------------------|
D|--7----------------------------------------|
A|-------------------------------------------|
E|-------------------------------------------|

E|-------------------------------------------|
B|-------------------------------------------|
G|------5---5h7b9-5---5h7-4------------------|
D|--5-7---7---------7-------5/7/5------------|
A|-------------------------------------------|
E|-------------------------------------------|

E|-------------------------------------------|
B|----6-6-6-5-5-5----------------------------|
G|5-7-------------7-7-7-5-5-5-4-4-4-2-2-2----|
D|----------------------------------------2/4|
A|-------------------------------------------|
E|-------------------------------------------|

             C
La Belle de Jour

          Am
Belle de Jour
          Em
Belle de Jour

    Am
La Belle de Jour
Era a moça mais linda
    Em
De toda a cidade
   Am
E foi justamente pra ela
                                Em
Que eu escrevi o meu primeiro blues
     F
Mas Belle de Jour
            Em
No azul viajava
     F
Seus olhos azuis como a tarde
    G
Na tarde de um domingo azul
             C   Em  C  Em
La Belle de Jour

C    Em   C   Em
Ah, hei.. ah, hei

 C     Em
Mar e Sol
 C
Gira, gira, gira
                              Em
Gira, gira, gira, gira, girassol

 C     Em
Mar e Sol
 C
Gira, gira, gira
                              Em
Gira, gira, gira, gira, girassol

C                           Em
  Um girassol nos teus cabelos
C                       Em
  Batom vermelho, girassol
   F              Em
Morena flor do desejo
F         G               C  Em  C  Em
Ah, teu cheiro em meu lençol

C  Em  C  Em )

C                           Em
  Um girassol nos teus cabelos
C                       Em
  Batom vermelho, girassol
   F              Em
Morena flor do desejo
F         G               C
Ah, teu cheiro em meu lençol

 Am             Em
Desço pra rua, sinto saudade
 Am             Em
Gata selvagem, sou caçador
   F              Em
Morena flor do desejo
F         G         C  Em  C  Em
Ah, teu cheiro matador

 C     Em
Mar e Sol
 C
Gira, gira, gira
                              Em
Gira, gira, gira, gira, girassol

 C     Em
Mar e Sol
 C
Gira, gira, gira
                              Em
Gira, gira, gira, gira, girassol

C    Em   C   Em
Ah, hei.. ah, hei
C    Em   C   Em
Ah, hei.. ah, hei

C  Em  C  Em )

Video Clip de La Belle de Jour / Girassol (pot-pourri)


ACORDES PARA GUITARRA

PIANO UKELELE
C
Em
Am
F
G


TOP 20: Las más tocadas de Alceu Valença


Acordes

Cerrar
C
Em
Am
F
G

12.08

x

158