Daydream Away (Acordes)

All Time Low

Subida por JOSEKA2005

Compartir


Imprimir FAQ
+A
-A

Texto

Desplazamiento

Transportador

Color de Fondo

Archivos

-A
+A
[Intro]
   D5            B5              G5   A5   D5
e|------------------------------------------------------------------------|
B|------------------------------------------------------------------------|
G|-7-7--6-6--4-4---7-7--6-6--4-4--7-7--6-6--7-7---------------------------|
D|-x-x--x-x--x-x---x-x--x-x--x-x--x-x--x-x--x-x---------------------------|
A|-5-5--4-4--2-2---5-5--4-4--2-2--5-5--4-4--5-5---------------------------|
E|------------------------------------------------------------------------|

[Verse 1]
D5                       B5
I wish you could see your face right now
D5                       B5
'Cause you're grinning like a fool
D5                       B5
And we're sitting on your kitchen floor
G5                A5
On a Tuesday afternoon

D5                     B5
Doesn't matter when we get back
D5            B5
To doing what we do
G5                        B5
'Cause right now could last forever
G5                 A5
Just as long as I'm with you

[Chorus] (Repeat Intro))
D5                     B5
You're just a daydream away
                        G5       A5  D5
I wouldn't know what to say if I had you
D5                         B5
And I'll keep you a daydream away
                      G5            
Just watch from a safe place
      A5           D5
So I never have to lose

[Verse 2]
D5                     B5
We would go out on the weekend
D5                 B5
To escape our busy lives
D5                          B5
And we'd laugh at all the douche-bag guys
G5                         A5
Chasing down their desperate wives

D5                      B5
I would drink a little too much
D5                  B5
And you'd offer me a ride
G5                  B5
I would offer you a t-shirt
G5                    A5
And you would stay another night

[Chorus](Repeat Intro))
D5                     B5
You're just a daydream away
                        G5       A5  D5
I wouldn't know what to say if I had you
D5                         B5
And I'll keep you a daydream away
                      G5            
Just watch from a safe place
      A5           D5
So I never have to lose

[Solo]
D5 - B5 - G5 -A5 -D5 x2
e|------------------------------------------------------------------------|
B|-7-7-5-5-7-7-8-8-7-7-5-5--------7-7-5-5-7-7-8-8-7-7-5-5---------7~------|
G|--7-7-7-7-7-7-7-7-7-7-7-7-7-7----7-7-7-7-7-7-7-7-7-7-7-7-7-7-7----------|
D|-------------------------7-7----------------------------7-7-7-7---------|
A|------------------------------------------------------------------------|
E|------------------------------------------------------------------------|

[Bridge]
D5                  B5          
We never stood a chance out there
D5                  B5
Shooting love in real-time
D5                  B5
So we'll take it over ice tonight
G5
With a little salt
           A5
And a little lime

[Chorus](Repeat Intro)
D5                     B5
You're just a daydream away
                        G5       A5  D5
I wouldn't know what to say if I had you
D5                         B5
And I'll keep you a daydream away
                      G5            
Just watch from a safe place
      A5           D5
So I never have to lose

(END)
D5 - B5 - G5 -A5 -D5 x2 (Repeat Intro)

You're just a daydream away
I wouldn't know what to say if I had you

************************************

| x  Dead note
| ~  Vibrato


************************************

Video Clip de Daydream Away


ACORDES PARA GUITARRA

PIANO UKELELE
D5
B5
G5
A5


TOP 20: Las más tocadas de All Time Low


Acordes

Cerrar
D5
B5
G5
A5

21.37

x

265