Compartir


Cambiar Cifrado
Americano Latino

Cambiar Tonalidad
-1 +1
Imprimir FAQ
+A
-A

Texto

Desplazamiento

Transportador

Color de Fondo

Archivos

Mudar para Português

TONALIDAD, TAMAÑO, CIFRADO, SCROL.

Nos renovamos: Ahora puedes cambiar TODO haciendo clic en ICONO de la Guitarra () que aparece en la parte inferior de esta página.


LETRA CON ACORDES

Intro:  D   A   F#m Bm   Bm A (x2)

                     D
Se ando cheio, me dilua.
A                      Bm
Se estou no meio, conclua.
A                         D
Se perco o freio, me obstrua.
A                       Bm
Se me arruinei, reconstrua.

A7                    G
Se sou um fruto, me roa.
D                    Em
Se viro um muro, me rua.
A7                  G
Se te machuco, me doa.
D                  Em     A7
Se sou futuro, evolua.

                    D
Você que me continua.
F#m7                 Bm
Você que me continua.
A7                 Em7
Você que me continua.

(Em  A7)

 A                          D
Se eu não crescer, me destrua.
A                      Bm
Se eu obcecar, me distraia.
A                    D
Se me ganhar, distribua.
A                   Bm
Se me perder, subtraia.

A7                       G
Se estou no céu, me abençoe.
D                      Em
Se eu sou seu, me possua.
A7                    G
Se dou um duro, me sue.
D                    Em   A7
Se sou tão puro, polua.

                    D
Você que me continua.
F#m7                 Bm
Você que me continua.
A7                 Em7
Você que me continua.

Em                 A7

Solo:  G   G/F#   Em   A (x2)

E|------------------------------------------|--------------------------------------------------|
B|------------------------------------------|--------------------------------------------------|
G|--------------0-2/4-2---------------------|------------------------------------------------2-|
D|----------3/5---------4-------------2/4-2-|----------------4-4-5-7-4-------------4-2-----2---|
A|-------2----------------5-2-----2-5-------|--------0-2-5-5-----------5-2-----2-5-----5-4-----|
E|-0-2-3----------------------5-0-----------|--0-2-3-----------------------5-0-----------------|

E|---------------------------------------------12-14-15-17b-17--|
B|------3-3-----3-3-----3-5b-5-3------12-14-15------------------|
G|--2/4-----2/4-----2/4-----------------------------------------|
D|--------------------------------------------------------------|
A|--------------------------------------------------------------|
E|--------------------------------------------------------------|

(A)

                    D
Se sou voraz, me sacie.
A                  Bm
Se for demais, atenue.
A                   D
Se fico atrás, assobie.
A                     Bm
Se estou em paz, tumultue.

A7                    G
Se eu agonio, me alivie.
D                     Em
Se me entedio, me dê rua.
A7                    G
Se te bloqueio, desvie.
D                     Em        A7
Se dou recheio, usufrua.

                    D
Você que me continua.
F#m7                 Bm
Você que me continua.
A7                 Em7
Você que me continua.

(Em  A7)
(D  A  F#m7  Bm  Bm  A)

Video Clip de Que Me Continua


ACORDES PARA GUITARRA

PIANO UKELELE
D
A
F#m
Bm
A7
G
Em
F#m7
Em7
G/F#


TOP 20: Las más tocadas de Arnaldo Antunes


Acordes

Cerrar
D
A
F#m
Bm
A7
G
Em
F#m7
Em7
G/F#

11.08

x

215