I Used To Have a Best Friend (Acordes)

Asking Alexandria

Subida por nestor

Compartir


Imprimir FAQ
+A
-A

Texto

Desplazamiento

Transportador

Color de Fondo

Herramientas

TAMAÑO
TONALIDAD
+A
+ (F4)
-A
- (F2)
Intro
E|--------------------------------------------------------------------|
B|--------------------------------------------------------------------|
G|-----10-10-10-10-10------10-10-10-10-10-----12-12-12-12-12--9-9-8-8-|
D|-0--0-x--x--x--x--x--0-0-x--x--x--x--x--8-8-x--x--x--x--x---x-x-x-x-|
A|-0--0-8--8--8--8--8--0-0-8--8--8--8--8--8-8-10-10-10-10-10--7-7-8-8-|
D|-0--0----------------0-0----------------8-8-------------------------|

E|----------------------------------------------------------------------|
B|----------------------------------------------------------------------|
G|-----10-10-10-10-10------10-10-10-10-10-----12-12-12-12-12------------|
D|-0--0-x--x--x--x--x--0-0-x--x--x--x--x--8-8-x--x--x--x--x---10-8-7h8--|
A|-0--0-8--8--8--8--8--0-0-8--8--8--8--8--8-8-10-10-10-10-10----------8-|
D|-0--0----------------0-0----------------8-8---------------------0-----|
                                                                 .
E|--------------------------------------------------------------------|
B|--------------------------------------------------------------------|
G|-----10-10-10-10-10------10-10-10-10-10-----12-12-12-12-12--9-9-8-8-|
D|-0--0-x--x--x--x--x--0-0-x--x--x--x--x--8-8-x--x--x--x--x---x-x-x-x-|
A|-0--0-8--8--8--8--8--0-0-8--8--8--8--8--8-8-10-10-10-10-10--7-7-8-8-|
D|-0--0----------------0-0----------------8-8-------------------------|

E|------------|
B|------------|
G|------------|
D|-10-8-7h8---|
A|---------8--|
D|-----0------|
         .

E|--------------------------------------------------|
B|--------------------------------------------------|
G|--------------------------------------------------|
D|-0~----------------------------------10-8-7h8-----|
A|-0~--00--00000-00--00000-00--00000-----------8----|
D|-0~--00--00000-00--00000-00--00000-------0--------|
      ..  ..... ..  ..... ..  .....       .

E|------------------------------------------------------------|
B|------------------------------------------------------------|
G|------------------------------------------------------------|
D|-----------------------------------10-8-7h8---8-7-5h7-------|
A|-0-00--00000-00--00000-00--00000-----------8---------7------|
D|-0-00--00000-00--00000-00--00000-------0---------0----------|
    ..  ....  ..  ..... ..  .....       .         .

E|-------------------------------------------|
B|-------------------------------------------|
G|-------------------------------------------|
D|-------------------------------------------|
A|-0-0--000--0-0--000-0-0--000-6h9p6-5h8p5---|
D|-0-0--000--0-0--000-0-0--000---------------|
  . .  ...  . .  ... . .  ...

E|---------------------------------------------------|
B|---------------------------------------------------|
G|------------------------------------------12------|
D|-------------------------------------7-10----------|
A|-0-0--000--0-0--000-0-0--000-----6-9---------------|
D|-0-0--000--0-0--000-0-0--000-5-8-------------------|
  . .  ...  . .  ... . .  ...

E|-------------------------------------------|
B|-------------------------------------------|
G|-------------------------------------9*----|
D|-------------------------------------------|
A|-0-0~--000~--0-0~--000-0-0~--000~----------|
D|-1-1~--111~--1-1~--111-1-1~--111~----------|
  . .   ...   . .   ... . .   ...

E|-----------------------------------------------|
B|-----------------------------------------------|
G|-----------------------------------------------|
D|------------------------------------------0~---|
A|-0-0--000--0-0--000-0-0--000-6h9p6-5h8p5--0~---|
D|-0-0--000--0-0--000-0-0--000--------------0~---|
  . .  ...  . .  ... . .  ...              .

E|------------------------------------------------|
B|------------------------------------------------|
G|------------------------------------------------|
D|------------------------------------------------|
A|-00---000-0--0--000-000-000-000-00-0--0-000-000-|
D|-00---000-0--0--000-000-000-000-00-0--0-000-000-|

E|--------------------------------------------|
B|--------------------------------------------|
G|--------------------------------------------|
D|-0-----8------3------0-------8------10------|
A|-0-x16-8-(x8)-3-(x8)-0-(x16)-8-(x8)-10-(x8)-|
D|-0-----8------3------0-------8------10------|

E|----------------------------------------------------------------|
B|----------------------------------------------------------------|
G|--------9-9-9-----------10-10-10--------------------------------|
D|-0------x-x-x--0--------x--x--x---0-----------------------------|
A|-0-000--7-7-7--0-0-000--8--8--8---0-----------------------------|
D|-0-000---------0-0-000------------0-0000h8888/10101010/12121212-|
    ...           . ...

E|---------------------------------------------------|
B|---------------------------------------------------|
G|---------------------------------------------------|
D|-0~------------------------------------------------|
A|-0~-----0000----0000-00-0----00000----0000-00-0-0~-|
D|-0~-----0000----0000-00-0----00000----0000-00-0-0~-|
         ....    .... .. .    .....    .... .. . .

E|---------------------------------|
B|---------------------------------|
G|---------------------------------|
D|--3------5------3------2---------|
A|--3-x16--5-x3---3-x16--2-x10-----|
D|--3------5------3------2---------|

E|------------------|
B|------------------|
G|-10-------12------|
D|-x--x10---x--x10--|
A|-8--------10------|
D|------------------|

E|------------------------------------|
B|------------------------------------|
G|------------------------------------|
D|-----10p0--------10-10p0------------|
A|--0--------00-0----------8p0-10p0---|
D|--0--------00-0---------------------|
    .        .. .

E|------------------|
B|------------------|
G|-10-------12------|
D|-x--x10---x--x10--|
A|-8--------10------|
D|------------------|

E|-----------------------------------------------------|
B|-----------------------------------------------------|
G|-----------------------------------------------------|
D|-----------------------------------------------------|
A|-0000-00-0000-00-00-00-00--0000-00-00000000-00-00-00-|
D|-0000-00-0000-00-00-00-00--0000-00-00000000-00-00-00-|
  .... .. .... .. .. .. ..  .... .. ........ .. .. ..

HERRAMIENTAS ACORDESWEB:


LETRA DE LA CANCIÓN:

Ver la letra sola (sin acordes)

DESCARGAR PDF / IMPRIMIR CANCIÓN



ACORDES PARA GUITARRA

PIANO UKELELE


TOP 20: Las más tocadas de Asking Alexandria