Western (Attaque 77) Acordes

Álbum: Antihumano (2003)



Más Versiones de esta Canción | Ver. 2 | Ver. 3 | Ver. 4 | Ver. 5 | Ver. 6 | Ver. 7 | Ver. 8 |

Cambiar Cifrado: |SOL > G| - |G > SOL|

BAJAR UN TONO BAJAR UN SEMI-TONO SUBIR UN SEMI-TONO SUBIR UN TONO PARTIR PANTALLA EN VERTICAL PARTIR PANTALLA EN VERTICAL ¡Ayuda!
-A
+A

http://*

bass tab

by : doky 2007
*

4-stringed bass
G D A E

INTRO/BREAK 1
G-|----------------------------------|
D-|----------------------777---5-777-|
A-|-000000-333333-555555-----7-------|
E-|----------------------------------|


VERSO 1
G-|---------------|
D-|---------------|
A-|-555555-333333-|
E-|---------------|


VERSO 2
G-|------------------|
D-|------5h7---------|
A-|-5555-----333-----|
E-|--------------3h5-|


CORO 1
G-|------------------------*--------|
D-|------------------------*--------|
A-|---------5--5--5--------*--------|
E-|-5--5--5---------1--1--1*5--5--5-|


CORO 2 DESDE LINEAS PUNTEADAS
G-|--------|----------------------|
D-|--------|----------------------|
A-|-333333-|-333333-555555/777777-|
E-|--------|----------------------|


BREAK 2
G-|---------------|---|----------------------|
D-|---------------|---|----------------------|
A-|-000000-333333-|---|-555555---------------|
E-|---------------|---|--------111111-333333-|
+

SOLO
G-|-----------------------------|------------------------------------|
D-|-----------------------------|------------------------------------|
A-|-333333-000000-555555-000000-|-3333/5555/8888/10-10-10-10/12------|
E-|-----------------------------|------------------------------------|

Le mando congratulaciones Al Javier Gorostiaga que es vocalista y guitarrista
de la banda donde toco y esta es la cancion que estamos sacando pues, porque el
escogio esta. bien tara oye el otro domingo hemos ido ha hacer jackass con al Mango y
el Ever al prado.

doky2007


Toca una Canción al Azar de Attaque 77



ACORDES PARA GUITARRA - ACORDES PARA UKELELE





Aún no hay comentarios, ¡escribe el primero!

Escribe un comentario o pregunta sobre esta canción:




Más canciones de Attaque 77

Dales Libertad
Hey! Hey!
Huérfanos
Última generación
Angeles Caidos
Ejercito de salvación
San Fermín
Que vas
Callejero
María
Luz
Vacaciones Permanentes
Otras canciones
Filo
Arrancacorazones
Onirico
Combate
Soy de a77que
Cíclope
Muerta

Siguiente


ABRIR ACORDES

Nuestro servidor se demoró 0.06 segundos en generar esta página. Eso fue realmente muy rápido!