c ▷ BRINCOU COMIGO: (Banda Calypso) Acordes para Guitarra, Piano & Ukelele

Brincou Comigo (Acordes)

Banda Calypso

Subida por Pilarmozass

Compartir


Imprimir FAQ
+A
-A

Texto

Desplazamiento

Transportador

Color de Fondo

Archivos

-A
+A
#Riff Intro:
              
           3x                            3x
E|-------------------------|-------------------------------------|
B|-------------------------|-------------------------------------|
G|-------------------------|--7-7-7-7----------------------------|
D|--12-12-12-11-9----------|----------11-9-7/9-------------------|
A|-----------------12/14---|-------------------------------------|
E|-------------------------|-------------------------------------|


 Bm 
 Ele sempre vai me levar 
 pra um caminho um lugar que ainda possa me ter
 Ele teve o meu coração
 A minha louca paixão e meu amor todo seu

          D
 Mas brincou (Mas brincou)
       A
 Mas sorriu (Mas sorriu)
           Em             Bm
 Não deu valor a minha paixão
       D
 Me negou (Me negou)
      A
 Seu amor (Seu amor)
           Em                Bm       Na segunda vez que repitir a música
 Hoje por ele não sinto nada não                ( Bm A Bm )


 #Riff 1 (Feito no meio da música)
        3x                        3x
E|-------------------|--15-15-15-15--14-12-10-12--|--11/12-11/12-|
B|-------------------|--14-14-14-14--13-11-9--11--|--10/11-10/11-|
G|--7-7-7-7----------|----------------------------|--------------|
D|----------11-9-7/9-|----------------------------|--------------|
A|-------------------|----------------------------|--------------|
E|-------------------|----------------------------|--------------|

Video Clip de Brincou Comigo


ACORDES PARA GUITARRA

PIANO UKELELE
Bm
D
A
Em


TOP 20: Las más tocadas de Banda Calypso


Acordes

Cerrar
Bm
D
A
Em

21.26

x

199