c ▷ BYE, BYE MY LOVE: (Banda Calypso) Acordes para Guitarra, Piano & Ukelele

Bye, bye my Love (Acordes)

Banda Calypso

Full Álbum: Volume 6 (2004)
Subida por Lucasz178

Compartir


Imprimir FAQ
+A
-A

Texto

Desplazamiento

Transportador

Color de Fondo

Archivos

-A
+A
Intro: B - F# - E
       B - F# - G#m - F# - E - B - C#m - B - F# - E - F#

#Riff Intro
E|------------------------------------6h7p6-----------------------
B|----------------------------------7-------7---7/9-7h9p7---------
G|-----6-6/8-6--------------6-6/8-6-----------8-----------8---6---
D|--9----------9-8-8/9---9----------------------------------9-----
A|----------------------------------------------------------------
E|----------------------------------------------------------------
 
E|------------------4--6--7--6--4--2------------------------------
B|----------------------------------------------------------------
G|--4h6p4-----------4--6--8--6--4--3------------------------------      
D|--------8-6-6/8-------------------------------------------------
A|----------------------------------------------------------------
E|----------------------------------------------------------------

#Riff 2
E|------------------------------------6h7p6-----------------------
B|----------------------------------7-------7---7/9-7h9p7---------
G|-----6-6/8-6--------------6-6/8-6-----------8-----------8---6---
D|--9----------9-8-8/9---9----------------------------------9-----
A|----------------------------------------------------------------
E|----------------------------------------------------------------

E|-----------------4--6--7--6--4--2-------------------------------
B|----------------------------------------------------------------
G|--4h6p4-6-6/8----4--6--8--6--4--3-------------------------------    
D|--------------8-------------------------------------------------
A|----------------------------------------------------------------
E|----------------------------------------------------------------

           B                   C#m     (D#)
 Já mais imaginei nos dois separados
             E              F#        B    (Bb)      
 Já mais pensei nos contra tempos do amor
 G#m                              D#
 Mas inocente tropecei nos seus pecados 
                            E                          B           (Bb)
 vendo os seus passos tão errados, o encanto que havia se quebrou
         G#m                       D#                          E
 Eu mergulhei de corpo, alma e coração apostei demais nessa paixão
          F#             B         E|-B
 Como dói olhar e ver o que sobrou

         C#m
 Bye, bye, my Love                             :
         B                                     :
 Bye, bye, my Love                             : 
         C#m                                   :  Refrão
 Bye, bye, my Love                             :
         B        ( E - F# para ir para intro) :
 Bye, bye, my Love   (#Riff 2)                 :
 

D#                          G#m
 Como pode me trair diz pra mim
            E          F#           B
 Se a minha vida entreguei, só pra você
D#                               G#m  (F#)
 Eu pensava que era um sonho sem fim
       E              C#m       F#
 Machuca tanto mas eu tenho que dizer

#As notas entre parênteses são as caidas da guitarra e/ou baixo#

Video Clip de Bye, bye my Love


ACORDES PARA GUITARRA

PIANO UKELELE
B
F#
E
G#m
C#m
D#
Bb


TOP 20: Las más tocadas de Banda Calypso


Acordes

Cerrar
B
F#
E
G#m
C#m
D#
Bb

21.22

x

157