c ▷ SEM MEDO DE FALAR: (Banda Calypso) Acordes para Guitarra, Piano & Ukelele

Sem medo de falar (Acordes)

Banda Calypso

Subida por quetzal0219

Compartir


Imprimir FAQ
+A
-A

Texto

Desplazamiento

Transportador

Color de Fondo

Archivos

-A
+A
Intro: (Am   F   Am   G) 2x
 
Riff intro:
E|----------------------------------------------------------------------------|
B|----------------------------------------------------------------------------|
G|----------5h7p5--7/9-7-5---7/9----------5h7p5--7/9-9-9-9-7-5----------------|
D|--7-7-7-7----------------7------7-7-7-7----------------------7--------------|
A|----------------------------------------------------------------------------|
E|----------------------------------------------------------------------------|

E|----------------------------------------------------------------------------|
B|----------------------------8/10-10-10-10-10-10/8---------------------------|
G|----------5h7p5--7/9-7-5--------------------------9-7/9-7-------------------|
D|--7-7-7-7----------------7--------------------------------------------------|
A|----------------------------------------------------------------------------|
E|----------------------------------------------------------------------------|

Riff 1#

Esse riff é feito durante toda música, exceto no refrão!!!  

E|--8-10-8--10-13-10--8-10-8--7--------8-10-8--10-13-10--8-10-8--10-13-10-----|
B|-------------------------------10-8-----------------------------------------|
G|----------------------------------------------------------------------------|
D|----------------------------------------------------------------------------|
A|----------------------------------------------------------------------------|
E|----------------------------------------------------------------------------|

Riff 2#
E|------------------------------------------------------------|
B|------------------------------------------------------------|
G|-------------5----------------5-----------------------------|
D|--7--7-7-7-7---7-5-7--7-7-7-5---7-5-------------------------|
A|-------------------------------------8----------------------|
E|------------------------------------------------------------|

Riff 3#
E|------------------------------------------------------------|
B|------------------------------------------------------------|
G|------------5-----------------------------------------------|
D|-5-5-5-5--7---7p5-------------------------------------------|
A|------------------8-----------------------------------------|
E|------------------------------------------------------------|


C            Dm 
Vai ver, eu quero te mostrar 
   Am                   G 
É fácil de aprender, é fácil de falar 
   Am                   Dm  
Assim fica difícil de poder lhe entender 
    Am                      Dm 
Se tudo o que eu faco é pra agradar você 
 
C            Dm 
Mas nao, nao tente me enganar 
   Am                       
Eu conheco voce 
    G 
Nao tente me enrolar 
  Am 
E quando a gente ama 
        Dm 
A gente bota pra ferver 
    Am                    Dm                Am 
Nem tudo nessa vida é tão fácil de entender      ( Riff 2# )
 
F                   G 
 Eu sei vopo cepe mepe apa mapa                                 :
                                                                : 
F                     G            Am                           :
 Voce me ama mas tem medo de falar, querido    ( Riff 2# )      :
                                                                : 
F                   G                                           : 
 Eu sei vopo cepe mepe apa mapa                                 : REFRÃO  
                                                                :
F                     G                Am                       :
 Voce me ama mas tem medo de falar, querido                     :
     G     Am        G                                          : 
 U o o, Querido, u o o                                          :

C             Dm 
 Vai ver, eu quero te mostrar 
    Am                   G 
 É fácil de aprender, é fácil de falar    

( Riff intro )
( Riff 3# )
  #Refrão#
  #Repete tudo#

Video Clip de Sem medo de falar


ACORDES PARA GUITARRA

PIANO UKELELE
Am
F
G
C
Dm


TOP 20: Las más tocadas de Banda Calypso


Acordes

Cerrar
Am
F
G
C
Dm

18.03

x

282