Zona Sul (Acordes)

Bruninho e Davi

Subida por Permar

Compartir


Cambiar Cifrado
Americano Latino

Cambiar Tonalidad
-1 +1
Imprimir FAQ
+A
-A

Texto

Desplazamiento

Transportador

Color de Fondo

Archivos

TONALIDAD, TAMAÑO, CIFRADO, SCROL.

Nos renovamos: Ahora puedes cambiar TODO haciendo clic en ICONO de la Guitarra () que aparece en la parte inferior de esta página.


LETRA CON ACORDES

C         G           Am                G             F
Eu já cansei de te esperar,perder meu tempo e o que não dá
      C             Dm                     G
To fora.....vo embora....vê se para de brincar..
 C            G                     Am
Vê se não enrola ,  não vou te esperar
G                             F
Não Jogue fora amor assim Não dá...
      C             Dm                    G
To fora.....vo embora....vê se para de brincar..
 F                   Dm             G
Quero mais...Quero amar.....Quero amor....

Refrão:

         C                   G                Am
Não quero brincar se a nossa História não ficar azul
        G                    F
Eu vou mandar você "pra zona sul"
                C             Dm G
Eu não quis mais fui me entregar
           C                 G               Am
Não quero brincar agora o meu mundo e só você e eu
           G                         F
 Não tem mais jeito o amor nos escolheu
             C           Dm        G          C F G C
Na mesma sintonia desse amor vou viver com você

E|-------------------------------------------------------------------------------------------|
B|-------------------------------------------------------------------------------------------|
G|----10/12--10--9----------------------9--9----10/12--10--9----------------------9----------|
D|------------------12--10--12--10--12------------------------12--10--12--10--12-----12--10--|
A|-------------------------------------------------------------------------------------------|
E|-------------------------------------------------------------------------------------------|

E|--------------------------------------------------8--10--10/12--10--8--7--8----------------|
B|--------------------------------------------8/10-------------------------------------------|
G|----10/12--10--9----------------------9--9-------------------------------------------------|
D|------------------12--10--12--10--12-------------------------------------------------------|
A|-------------------------------------------------------------------------------------------|
E|-------------------------------------------------------------------------------------------|

Video Clip de Zona Sul


ACORDES PARA GUITARRA

PIANO UKELELE
C
G
Am
F
Dm


TOP 20: Las más tocadas de Bruninho e Davi


Acordes

Cerrar
C
G
Am
F
Dm

09.07


192