Boate Azul
Bruno e Marrone
Acordes

Subida por Aguirre


Más Versiones
Ver. 2 Ver. 3 Ver. 4 Ver. 5 Ver. 6 Ver. 7 Ver. 8 Ver. 9 Ver. 10 Ver. 11 Ver. 12 Ver. 13 Ver. 14 Ver. 15 Ver. 16 Ver. 17
HERRAMIENTAS

Cambiar Cifrado
Americano Latino

Cambiar Tonalidad
-1 +1

Partir Pantalla Imprimir FAQ

+A
-A
Mudar para Português
LETRA CON ACORDES

¿Tu Guitarra esta Afinada? PRUEBA NUESTRO NUEVO AFINADOR

[Intro] Dm  G  C  F
        Dm  E  Am  A7
        Dm  G  C  F
        Dm  E  Am

[Solo Introdução]

Parte 1
E|-1-1-1-0-1-0-1--------------0---0---0----------------|
B|---------------1-0----0-1-3---3---3------------------|
G|----------------------------------------2/4 2--------|
D|-----------------------------------------------------|
A|-----------------------------------------------------|
E|-----------------------------------------------------|

Parte 2
E|-------------------------------------0---------------|
B|---0-1-3-1-3-1-3---------0-1-0-1-2-3-----------------|
G|-2---------------1/2-1-2-----------------------------|
D|-----------------------------------------------------|
A|-----------------------------------------------------|
E|-----------------------------------------------------|

Parte 3
E|-1-0-1-0-1-3/5-3---------0---0---0-1/3-1-------------|
B|-------------------0-1-3---3---3---------------------|
G|-----------------------------------------------------|
D|-----------------------------------------------------|
A|-----------------------------------------------------|
E|-----------------------------------------------------|

Parte 4
E|-----------------------4-5/7-5--------17-------------|
B|---0-1-3-1-3-1-3-5/6-5-------------------------------|
G|-2------------------------------------17-------------|
D|-----------------------------------------------------|
A|----------------------------------------0------------|
E|-----------------------------------------------------|

[Primeira Parte]

            Am
Doente de amor procurei remédio
           G
Na vida noturna
               F
Com a flor da noite 
                           E
Em uma boate aqui na zona sul

           Dm
A dor do amor é com outro amor 
             Am
Que a gente cura
             E
Vim curar a dor desse mal de amor
           Am A7
Na boate azul
            Dm
E quando a noite vai se agonizando
                Am
No clarão da aurora
      E
Os integrantes da vida noturna
             Am A7
Se foram dormir
             Dm
E a dama da noite que estava comigo
              Am
Também foi embora
                F
Fecharam-se as portas
            E
Sozinho de novo
          A
Tive que sair

[Refrão]

A              E
  Sair de que jeito
              D              A
Se nem sei o rumo para onde vou
                                 E
Muito vagamente me lembro que estou
         D                 A
Em uma boate aqui na zona sul
           E
Eu bebi demais
          D                  A
E não consigo me lembrar sequer
                            E
Qual era o nome daquela mulher
           D        E      A   A7
A flor da noite na boate azul

Dm  G  C  F )
Dm  E  Am  A7 )

[Repete a Primeira Parte]

            Dm
E quando a noite vai se agonizando
                Am
No clarão da aurora
      E
Os integrantes da vida noturna
             Am A7
Se foram dormir
             Dm
E a dama da noite que estava comigo
              Am
Também foi embora
                F
Fecharam-se as portas
            E
Sozinho de novo
          A
Tive que sair

[Refrão Final]

A              E
  Sair de que jeito
              D              A
Se nem sei o rumo para onde vou
                                 E
Muito vagamente me lembro que estou
         D                 A
Em uma boate aqui na zona sul
           E
Eu bebi demais
          D                  A
E não consigo me lembrar sequer
                            E
Qual era o nome daquela mulher
           D        E      A   A7
A flor da noite na boate azul

A              E
  Sair de que jeito
              D              A
Se nem sei o rumo para onde vou
                                 E
Muito vagamente me lembro que estou
         D                 A
Em uma boate aqui na zona sul
           E
Eu bebi demais
          D                  A
E não consigo me lembrar sequer
                            E
Qual era o nome daquela mulher
           D        E      A
A flor da noite na boate azul////////////////// ¿Te Animas? Sube una canción a este sitio. //////////////////

ACORDES PARA GUITARRA

PIANO UKELELE
Dm
G
C
F
E
Am
A7
A
D


COMENTARIOS

Aún no hay comentarios,

¡escribe el primero!

Escribe una pregunta, duda o comentario sobre esta canción, te responderemos a la brevedad.

Las canciones más tocadas de Bruno e Marrone

Toca una Canción al Azar de Bruno e Marrone
Dm
G
C
F
E
Am
A7
A
D

09.05


Nuestro servidor se demoró 0.07 segundos en generar esta página. Eso fue realmente muy rápido!