c ▷ TE VI UN MOMENTO: (Camilo) Acordes para Guitarra, Piano & Ukelele

Te vi un momento (Acordes)

Camilo

Subida por lis777

Compartir


Imprimir FAQ
+A
-A

Texto

Desplazamiento

Transportador

Color de Fondo

Archivos

-A
+A
Este es el medio intro de la cancion espero que les sirva ojala no me
halla quedado mal es mi primera ves

e-|--------------------0h2h0----------5--5h7--5-|
B-|-------------0-x--3-----------4-x--5---------|
G-|-------------2-x--4-----------6-x--7---------|
D-|-------------2-x--4-----------6-x--7---------|
A-|-----0h2h0-----x--2---------4---x--5---------|
E-|-0h2-----------------------------------------|

e-|-----------------------------5--|
B-|---------0-x---3-x---4-x----5---|
G-|---------2-x---4-x---6-x---7----|
D-|---------2-x---4-x---6-x--7-----|
A-|-0h2h0-----x-2---x-4---x-5------|
E-|--------------------------------|

  Asus       Bm
te vi un momento
           C#m         D5       E5      Asus
nuestros ojos se encontraron sin querer
     Bm             C#m
de repente un sentimiento
     D5     E5
comenzó a florecer

Aqui va medio lento

 Bm           F#m7     E
no sé que palabras te deba decir
 Bm           F#m7     E
no sé que misterios voy a descubrir

Va arpegiado tocan D con la primera cuerda al aire
 D                    C#m
no se si alejarme, no se si acercarme
Va arpegiado rapido
   Bm  Asus   E          E/G#
la verdad no se que hacer

CORO
 Asus             Bm         C#m    Asus
algo me dice que mi corazon
  D       E      Asus  Creo que hace estas 2 notas rapido  D E
ya encontro su lugar
 Asus               Bm        C#m    Asus
algo me dice que vas a ser tu
Bsus2        D       E
con quien aprenda a soñar
 Asus             Bm         C#m    Asus
algo me dice que tu corazon
   D       E    Asus  F#m7
siente lo mismo que yo
     Bm    C#m           Asus
y solo espero de ti una señal
  D       E      Asus
para poderme entregar
  D       E      Asus
Para poderme entregar
  D       E      Asus
Para poderme entregar

Acordes

Asus x02200
D xx0230
Bsus2 x24422

lO hago COn mucho Cariño para lA NIÑA que cautvo mi corazon Lorena Piñeros
Te amo


Video Clip de Te vi un momento


ACORDES PARA GUITARRA

PIANO UKELELE
Asus
Bm
C#m
D5
E5
F#m7
E
D
E/G#
Bsus2


TOP 20: Las más tocadas de Camilo


Toca una Canción al Azar de Camilo

Acordes

Cerrar
Asus
Bm
C#m
D5
E5
F#m7
E
D
E/G#
Bsus2

07.02

x

94