I'll Stand By You

Carrie Underwood

Acordes

Subida por AARAYA


Más Versiones
Ver. 2 Ver. 3

Cambiar Cifrado
Americano Latino

Cambiar Tonalidad
-1 +1

Partir Pantalla Imprimir FAQ

+A
-A
Intro: 
D Bm A G
E|-/10~~~---12~~----9h10~~~--
B|---------------------------
G|---------------------------

D F#m
Oh, why you look so sad
G
The tears are in your eyes
A Asus4 A
Come on and come to meeeee now
G|-------2--
D|-----2----
A|---4------
E|-5--------
D Bm F#m
Don't be ashamed to cry
G
Let me see you through
Bm A
'Cause I've seen the dark side too

F#m Bm
When the night falls on you
F#m Bm
And you don't know what to do
G
Nothing you confess
A
Can make me love you less

D Bm
I'll stand by you, I'll stand by you
Am
I won't let nobody hurt you
D F G
I'll stand by you

C Em
So, if you're mad, get mad
F
Don't hold it all inside
G G/B
Come on and talk to me now
C Am Em
Hey, what you got to hide
F
I get angry too
Am G
Well I'm a lot like you

Em Am
When you're standing at the crossroads
Em Am
And don't know which path to choose
F
Let me come along
G
'Cause even if you're wrong

D Bm
I'll stand by you, I'll stand by you
Am
I won't let nobody hurt you
D
I'll stand by you
Bm
Take me in into your darkest hour
Am
And I'll never desert you
D
I'll stand by you

Solo:
D Bm G
E|-----------------------------------------------------------------------
B|-----------------------------------------------------------------------
G|-9/11--11--12p11-9-9/11---9/11--11--12p11-9-11--11h12~-12--11-9--11p9--
D|---------------------------------------------------------------------12

Bm A
E|---------------------------------------------12-14-15p14-15p14-17------
B|------------------------------12-14-12-14-15---------------------------
G|-9/11-11-11-11-119--11-12-14------------------------------------------
D|-----------------------------------------------------------------------

F#m Bm
And when, when the night
F#m Bm
Falls on you, baby
G
You're feeling all alone
A
You won't be on your own

D Bm
I'll stand by you, I'll stand by you
Am
I won't let nobody hurt you
D
I'll stand by you
Bm
Take me in into your darkest hour
Am
And I'll never desert you
D Bm A
I'll stand by you
G D Bm A
Oh, I'll stand by you
G D
I'll stand by you

NUEVO FORO DE MÚSICA

¿Tienes alguna duda, consulta, pregunta, consejo o algo para compartir sobre esta canción?

¡Puedes abrir un hilo en el FORO para que la comunidad te ayude! Hacer una pregunta

ACORDES PARA GUITARRA

PIANO UKELELE
D
Bm
A
G
F#m
Asus4
Am
F
C
Em
G/B


Las más tocadas de Carrie Underwood

D
Bm
A
G
F#m
Asus4
Am
F
C
Em
G/B