Look At Me

Carrie Underwood

Acordes

Play On (2009)
Subida por Nano777


Más Versiones
Ver. 2

Cambiar Cifrado
Americano Latino

Cambiar Tonalidad
-1 +1

Partir Pantalla Imprimir FAQ

+A
-A


Ver solo la LETRA
Intro:
E|------------------------------------------|
B|-----------12---12-------0---0------------|
G|9-11-11/13----9----8-8/9-------7-8-8/10---|
D|------------------------------------------|
A|------------------------------------------|
E|------------------------------------------|

D A Bm A G
I would bet my life like I bet my heart
Em A
That you were the one, baby
D A Bm A G
I've never been so sure of anything before
Em A
You're driving my heart crazy

G
I can't hold out
A G
I can't hold back now
A
Like i've done before

D A Bm
Darling look at me
A Em G A
I've fallen like a fool for you
D A Bm
Darling can't you see
A Em G A
I'd do anything you want me to

Em A Bm
I tell myself I'm in too deep
G
Then I fall a little farther
Em A D
Every time you look at me

D A Bm
How do you do that, babe?
A G Em A
Make me feel like I'm the only girl alive for you
D A Bm A G
I don't know what it is that makes me fall like this
Em A
First time in your arms I knew

G
The way you held me
A
I knew that this could be
G A
What I've been waiting to find

D A Bm
Darling look at me
A Em G A
I've fallen like a fool for you
D A Bm
Darling can't you see
A Em G A
I'd do anything you want me to

Em A Bm
I tell myself I'm in too deep
G
Then I fall a little farther
Em A D
Every time you look at me

E|----------------------------|
B|-----------12---12-------0--|
G|9-11-11/13----9----8-8/9----|
D|----------------------------|
A|----------------------------|
E|----------------------------|

Em A D
Every time you look at me

NUEVO FORO DE MÚSICA

¿Tienes alguna duda, consulta, pregunta, consejo o algo para compartir sobre esta canción?

¡Puedes abrir un hilo en el FORO para que la comunidad te ayude! Hacer una pregunta

ACORDES PARA GUITARRA

PIANO UKELELE
D
A
Bm
G
Em


Las más tocadas de Carrie Underwood

D
A
Bm
G
Em