Remind Me

Carrie Underwood

Acordes

Subida por scarlet



Cambiar Cifrado
Americano Latino

Cambiar Tonalidad
-1 +1

Partir Pantalla Imprimir FAQ

+A
-A


Ver solo la LETRA
Intro:

E|--------------------|-----------|-------------------|---------|
B|--------------------|-----------|-------------------|---------|
G|--------------------|-----------|-------------------|---------|
D|--5h7--5h7--5h7-----|-5h7--10-7-|-----5/7--53--5---|---------|
A|-----------------3--|-----------|-3--------------3-|--3-31-1-|
E|--------------------|-----------|-------------------|---------|

E|----------------------|------------------------|---------------------------|
B|----------------------|------------------------|---------------------------|
G|----------------------|------------------------|---------------------------|
D|--5h7--5h7--5h7--5h7--|--5h7--5h7--5h7--5h7----|--10-75--3h5--7-8---------|
A|----------------------|3---------------------3-|-------------------3-------|
E|----------------------|------------------------|---------------------------|

E|----------------------|------------------------|---------------------------|
B|----------------------|------------------------|---------------------------|
G|----------------------|------------------------|---------------------------|
D|----------------------|------------------------|---------------------------|
A|-3h5--3-5p3-----------|------------------------|---------------------------|
E|----------------------|------------------------|---------------------------|

F Dm
We didn't care if people stared, we'd make out in a crowd somewhere
C Bb
Somebody'd tell us to get a room, it's hard to believe that was me and you
F Dm
Now we keep saying that we're ok, but I don't want to settle for good not great
C Bb
I miss the way that it felt back then, I wanna feel that way again

Refrão:

F Dm
Been so long that you've forget, the way I used to kiss your neck
C Bb
Remind me, remind me
F Dm
So on fire so in love. Way back when we couldn't get enough
C Bb
Remind me, remind me

Verso:

F Dm
Remember the airport dropping me off, we were kissing goodbye and we couldn't stop
C Bb
I felt bad cause you missed your flight, but that meant we had one more night

Refrão:

F Dm
Do you remember how it used to be, we'd turn out the lights and didn't just sleep
C Bb
Remind me, baby remind me
F Dm
Oh so on fire so in love, that look in your eyes that I miss so much
C Bb
Remind me, baby remind me

Ponte:
Gm F
I wanna feel that way, yeah I wanna hold you close
Gm F
Oh If you still love me, don't just assume I know

(Solo)

Refrão:

F Dm
Do you remember the way it felt? You mean back when we couldn't control ourselves
C Bb
Remind me, yeah remind me
F Dm
All those things that you used to do, that made me fall in love with you
C Bb
Remind me, oh baby remind me

Verso:

F Dm
Yeah you'd wake up in my old t-shirt, all those mornings I was late for work
C Bb F Dm
Remind me, oh baby remind me
C Bb
Oh baby remind me, baby remind...
F Dm
Yeah you'd wake

NUEVO FORO DE MÚSICA

¿Tienes alguna duda, consulta, pregunta, consejo o algo para compartir sobre esta canción?

¡Puedes abrir un hilo en el FORO para que la comunidad te ayude! Hacer una pregunta

ACORDES PARA GUITARRA

PIANO UKELELE
F
Dm
C
Bb
Gm


Las más tocadas de Carrie Underwood

F
Dm
C
Bb
Gm