Were Young And Beautiful (Acordes)

Carrie Underwood

Full Álbum: Some Hearts (2005)
Subida por Blanca

Compartir


Imprimir FAQ
+A
-A

Texto

Desplazamiento

Transportador

Color de Fondo

Archivos

-A
+A
We're Young and Beautiful
Tabbed by: angel_of_music

Watching a video, I saw that the guitarist shifted.  So here's one way to play it:
e|------------------------------------------------|
B|------------------------------------------------|
G|--------------------------------------------5---| repeat
D|---5h7-7-5h7-7--12p11-12p11--5h7-7-7--7-5-5-----|
A|------------------------------------------------|
E|------------------------------------------------|

This is the same, but it's easier to play because you don't have to shift.

e|------------------------------------------|
B|------------------------------------------|
G|---------------7p5-7p5-----------------5--| repeat
D|--5h7-7-5h7-7-----------5h7-7-7--7-5-5----|
A|------------------------------------------|
E|------------------------------------------|

^^^^^^^^^^^^^^
I play this one for the intro because I can get more of the distortion.

To play the rest of the song, I suggest playing the one submitted by pighinator found 
http://*?id=31258.  If you notice, you can still hear the riff 
out the song.  So when you play the A chord.  Just imagine this tab for the riff...

e|---------------------------------------------------|
B|--------------------3p2--3p2-----------------------|
G|--0h2--2--0h2--2---------------0h2--2--2--2--0--0--| repeat
D|---------------------------------------------------|
A|---------------------------------------------------|
E|---------------------------------------------------|

...and blend it in with the A chord like this

e|--0----0--0----0----0----0-----0----0--0--0--0--0--|
B|--2----2--2----2----3p2--3p2---2----2--2--2--2--2--|
G|--0h2--2--0h2--2----2----2-----0h2--2--2--2--0--0--|
D|--2----2--2----2----2----2-----2----2--2--2--2--2--|
A|--0----0--0----0----0----0-----0----0--0--0--0--0--|
E|---------------------------------------------------|

You can be the judge of the strums.

Video Clip de Were Young And Beautiful


ACORDES PARA GUITARRA

PIANO UKELELE


TOP 20: Las más tocadas de Carrie Underwood


Acordes

Cerrar

05.19

x

187