As Dez Pragas

Daniel e Samuel

Acordes

Subida por ANDREA


Más Versiones
Ver. 2 Ver. 3 Ver. 4 Ver. 5 Ver. 6

Cambiar Cifrado
Americano Latino

Cambiar Tonalidad
-1 +1

Partir Pantalla Imprimir FAQ

+A
-A


Ver solo la LETRA
[Intro]

E|--/5-4-----------------------------------------------------|
B|--/7-5-7-5-------------------------------------------------|
G|-------6-5-6---/3-1-0--0-----------------------------------|
E|-----------7---/4-2-0--0-2--2-0----------------------------|
B|-------------------------3--3-2----------------------------|

E|------------0------------0-----------0---------------------|
B|-----------------------------------------------------------|
G|--5-8-6-5-6---6-10-8-6-8---8-8-6-5-6---6-10-8-6-6/8--------|
E|--5-9-7-5-7---7-10-9-7-9---9-9-7-5-7---7-10-9-7-7/9--------|
B|-----------------------------------------------------------|
E|-----------------------------------------------------------|

E|-------------14--12----------------------------------------|
B|-------7--/15--14------------------------------------------|
G|--/6-6----------------5-0-3-0-6-6^5^6-5--1p0----------5----|
E|----------------------5-0-4-0-7-7^5^7-5------2-0-0-/5---5--|
B|-----------------------------------------------------------|

E B7 E
Deus forte igual ao nosso nem houve nem haverá
B7
Um Deus que já ganha a luta, antes mesmo de lutar
E
Perfeitamente escuta até mudo conversar
A
E quem a Ele insulta, vê a coisa complicar
Foi assim lá no Egito, para os Hebreus libertar
E B7 E
Dez pragas Ele mandou e assim fez faraó calar

E|--/5-4-----------------------------------------------------|
B|--/7-5-7-5-------------------------------------------------|
G|-------6-5-6---/3-1-0--0-----------------------------------|
E|-----------7---/4-2-0--0-2--2-0----------------------------|
B|-------------------------3--3-2----------------------------|

E|------------0------------0-----------0---------------------|
B|-----------------------------------------------------------|
G|--5-8-6-5-6---6-10-8-6-8---8-8-6-5-6---6-10-8-6-6/8--------|
E|--5-9-7-5-7---7-10-9-7-9---9-9-7-5-7---7-10-9-7-7/9--------|
B|-----------------------------------------------------------|
E|-----------------------------------------------------------|

E|-------------14--12----------------------------------------|
B|-------7--/15--14------------------------------------------|
G|--/6-6----------------5-0-3-0-6-6^5^6-5--1p0----------5----|
E|----------------------5-0-4-0-7-7^5^7-5------2-0-0-/5---5--|
B|-----------------------------------------------------------|

E B7 E
Lá vai a primeira praga começa a humilhação
B7
O Rio Nilo era dourado por toda aquela nação
E
Pro Egito era sagrado trazia superstição
A
Deus fez o rio virar sangue, de sangue era a maldição
E essa praga terrível, era só demonstração
E B7 E
Que o controle das águas eu sei na palma da mão

E|--/5-4-----------------------------------------------------|
B|--/7-5-7-5-------------------------------------------------|
G|-------6-5-6---/3-1-0--0-----------------------------------|
E|-----------7---/4-2-0--0-2--2-0----------------------------|
B|-------------------------3--3-2----------------------------|

E|------------0------------0-----------0---------------------|
B|-----------------------------------------------------------|
G|--5-8-6-5-6---6-10-8-6-8---8-8-6-5-6---6-10-8-6-6/8--------|
E|--5-9-7-5-7---7-10-9-7-9---9-9-7-5-7---7-10-9-7-7/9--------|
B|-----------------------------------------------------------|
E|-----------------------------------------------------------|

E|-------------14--12----------------------------------------|
B|-------7--/15--14------------------------------------------|
G|--/6-6----------------5-0-3-0-6-6^5^6-5--1p0----------5----|
E|----------------------5-0-4-0-7-7^5^7-5------2-0-0-/5---5--|
B|-----------------------------------------------------------|

E B7 E
Chegando a segunda praga e trazendo grande agonia
B7
Havia uma certa imagem que com uma rã parecia
E
Diziam que essa bobagem o Egito protegia
A
Deus enviou tanta rã que até na imagem subia
Pra todo canto que olhava, era só rã que se via
E B7 E
Deus provou para os egipcios que a imagem pra nada servia

E|--/5-4-----------------------------------------------------|
B|--/7-5-7-5-------------------------------------------------|
G|-------6-5-6---/3-1-0--0-----------------------------------|
E|-----------7---/4-2-0--0-2--2-0----------------------------|
B|-------------------------3--3-2----------------------------|

E|------------0------------0-----------0---------------------|
B|-----------------------------------------------------------|
G|--5-8-6-5-6---6-10-8-6-8---8-8-6-5-6---6-10-8-6-6/8--------|
E|--5-9-7-5-7---7-10-9-7-9---9-9-7-5-7---7-10-9-7-7/9--------|
B|-----------------------------------------------------------|
E|-----------------------------------------------------------|

E|-------------14--12----------------------------------------|
B|-------7--/15--14------------------------------------------|
G|--/6-6----------------5-0-3-0-6-6^5^6-5--1p0----------5----|
E|----------------------5-0-4-0-7-7^5^7-5------2-0-0-/5---5--|
B|-----------------------------------------------------------|

E B7 E
As pragas que vem agora provocam nojo e gastura
B7
A terceira foi piolho levando o povo à loucura
E
Bicho caía no olho aumentando a amargura
A
A quarta era de moscas, foi uma nojeira pura
Deus mostrou à faraó que com Ele a linha é dura
E B7 E
Deus inseto e Deus mosca, Deus fez perderem a postura

E|--/5-4-----------------------------------------------------|
B|--/7-5-7-5-------------------------------------------------|
G|-------6-5-6---/3-1-0--0-----------------------------------|
E|-----------7---/4-2-0--0-2--2-0----------------------------|
B|-------------------------3--3-2----------------------------|

E|------------0------------0-----------0---------------------|
B|-----------------------------------------------------------|
G|--5-8-6-5-6---6-10-8-6-8---8-8-6-5-6---6-10-8-6-6/8--------|
E|--5-9-7-5-7---7-10-9-7-9---9-9-7-5-7---7-10-9-7-7/9--------|
B|-----------------------------------------------------------|
E|-----------------------------------------------------------|

E|-------------14--12----------------------------------------|
B|-------7--/15--14------------------------------------------|
G|--/6-6----------------5-0-3-0-6-6^5^6-5--1p0----------5----|
E|----------------------5-0-4-0-7-7^5^7-5------2-0-0-/5---5--|
B|-----------------------------------------------------------|

E B7 E
A quinta, sexta e sétima foram pragas muito fortes
B7
Na quinta Deus fez morrer aves e animais de corte
E
Ninguém pode socorrer, Deus nenhum trouxe suporte
A
Na sexta Deus mandou úlcera nenhum homem teve sorte
Na sétima Deus mandou, saraiva de sul ao norte
E B7 E
Tifão e Osíris souberam que só Deus é forte

E|--/5-4-----------------------------------------------------|
B|--/7-5-7-5-------------------------------------------------|
G|-------6-5-6---/3-1-0--0-----------------------------------|
E|-----------7---/4-2-0--0-2--2-0----------------------------|
B|-------------------------3--3-2----------------------------|

E|------------0------------0-----------0---------------------|
B|-----------------------------------------------------------|
G|--5-8-6-5-6---6-10-8-6-8---8-8-6-5-6---6-10-8-6-6/8--------|
E|--5-9-7-5-7---7-10-9-7-9---9-9-7-5-7---7-10-9-7-7/9--------|
B|-----------------------------------------------------------|
E|-----------------------------------------------------------|

E|-------------14--12----------------------------------------|
B|-------7--/15--14------------------------------------------|
G|--/6-6----------------5-0-3-0-6-6^5^6-5--1p0----------5----|
E|----------------------5-0-4-0-7-7^5^7-5------2-0-0-/5---5--|
B|-----------------------------------------------------------|

E B7 E
Na oitava gafanhotos chegaram para devorar
B7
Um Deus chamado Serafis, que protegia o lugar
E
A imagem não deu escape, Deus veio à ela humilhar
A
A nona praga foi trevas pro Deus Sol envergonhar
Na décima os primogênitos, um anjo veio matar
E B7
Assim está comprovado que Deus
E
Igual ao nosso, igual ao nosso, igual ao nosso não há

ACORDES PARA GUITARRA

PIANO UKELELE
E
B7
A


Las más tocadas de Daniel e Samuel

E
B7
A