Belo Paraíso

Daniel e Samuel

Acordes

Subida por Mauricio


Más Versiones
Ver. 2 Ver. 3 Ver. 4 Ver. 5 Ver. 6

Cambiar Cifrado
Americano Latino

Cambiar Tonalidad
-1 +1

Partir Pantalla Imprimir FAQ

+A
-A


Ver solo la LETRA

E|----------------------------------------------------------
B|-7b..7b.7b.7.5-----------------9..12b.10.9.10-------------
G|------------------6----------10----------------9.11-------
D|------------------------9.11------------------------------
A|----------------------------------------------------------
E|----------------------------------------------------------

E|-----------------------------------------------------------
B|---------9.10.12.12b.12.10.9.12.10.9-----------------------
G|-11/9.11------------------------------9--------------------
D|-----------------------------------------------------------
A|-----------------------------------------------------------
E|-----------------------------------------------------------

E|-----------------------------------------------------------
B|--10.9--------------------------------12-------------12b.12
G|----------11.9..11/13..11/13..11.9.11-----11b.11.9~~-------
D|-----------------------------------------------------------
A|-----------------------------------------------------------
E|-----------------------------------------------------------



F Bb F
Tenho visto uma tristeza em seu olhar
F#m Gm
Já não tens mais alegria pra cantar
Gm7 C
E já pensas que acabou toda razão
Bb C F Bb
De voltar a ser feliz o coração
F Bb F
Você diz que vê seu mundo desabando
F#m Gm
Você diz que vê as forças se acabando
Gm7 C
Você vê o que é mal e só reclama
Bb C F C
E não sabe ver Jesus que te ama

Dm C
Se você olhar de lado vai notar
Bb
Sua presença sem falência
C F C
Ele é o amigo mais preciso
Dm C
Se você olhar pra frente vai caminhar mais contente
Gm Bb C C7
Pois na frente te espera um paraíso

F F#m Gm
Um paraíso espera por você
C Bb C F C7
Espera por você, um paraíso
F F#m Gm
Um paraíso espera por você
C Bb C F
Espera por você, um belo paraíso

NUEVO FORO DE MÚSICA

¿Tienes alguna duda, consulta, pregunta, consejo o algo para compartir sobre esta canción?

¡Puedes abrir un hilo en el FORO para que la comunidad te ayude! Hacer una pregunta

ACORDES PARA GUITARRA

PIANO UKELELE
F
Bb
F#m
Gm
Gm7
C
Dm
C7


Las más tocadas de Daniel e Samuel

F
Bb
F#m
Gm
Gm7
C
Dm
C7