De Gênesis a Apocalipse (part. Kimberly Fraiber)

Daniel e Samuel

Acordes

Subida por Camrose


Más Versiones
Ver. 2 Ver. 3 Ver. 4 Ver. 5 Ver. 6

Cambiar Cifrado
Americano Latino

Cambiar Tonalidad
-1 +1

Partir Pantalla Imprimir FAQ

+A
-A


Ver solo la LETRA
[Intro] D  D/C#  Bm7  A
D D/C# Bm7 G7M(9)

D D/C#
E|------------------------------------------|
B|-3---3---3---3----3---3---3---3-----------|
G|---2---2---2---2----2---2---2---2---------|
D|------------------------------------------|
A|-5----------------4-----------------------|
E|------------------------------------------|

Bm7 A
E|--------------------------0---5-----------|
B|-3---3---3---3----2---3-------------------|
G|---2---2---2---2--2-----------------------|
D|------------------2-2---2---2---2---------|
A|-2----------------0-----------------------|
E|------------------------------------------|

D D/C#
E|------------------------------------------|
B|-3---3---3---3----3---3---3---3-----------|
G|---2---2---2---2----2---2---2---2---------|
D|------------------------------------------|
A|-5----------------4-----------------------|
E|------------------------------------------|

Bm7 G7M(9)
E|--------------------0-2-0-----------------|
B|-3---3---3---3----3---3---3---------------|
G|---2---2---2---2------2-----2-------------|
D|------------------------------------------|
A|-2----------------------------------------|
E|----------------------3-------------------|

[Primeira Parte]

D D/C# Bm7
No Gênesis Ele é a semente imortal da mulher
D D/C# Bm7
No Êxodo Ele é líder seguido por fé
G A D
Levítico é o sacrifício de oferta e perdão
G D
Números herança e organização
A7 D
Em Deuteronômio é fé em ação

D D/C# Bm7
Em Josué Ele é o capitão vencedor
D D/C# Bm7
Em Juízes é o justo juiz que a lei santa aplicou
G A D
Em Rute Ele é o parente que não desampara
G D
E em Samuel Ele é resposta clara
A7 D
E quem ora e crê sua bênção declara

[Refrão]

D D/C# Bm7
Em Reis ELE é o maior Rei que sempre reinará
D D/C# Bm7
Em Crônicas ele é a história que não morrerá
D D/C# Bm7
Em Esdras Ele é o decreto de Deus a servir
G D
Neemias é certa missão a cumprir
A7 D Eb
Ester é a resposta pra quem sabe agir

[Segunda Parte]

Eb/D Cm7
Em Jó Ele é o redentor que se levantará
Eb Eb/D Cm7
Em Salmos ele é o pastor que nada faltará
Ab Bb Eb
Provérbios é a sabedoria do bom instrutor
Ab Eb
Em Eclesiastes Ele é o pregador
Bb7 Eb
Cantares é o noivo com eterno amor

Eb Eb/D Cm7
Em Isaias Ele é o messias enviado a nós
Eb Eb/D Cm7
Em Jeremias Ele é o choro sendo nossas voz
Ab Bb Eb
Em Lamentações Ele é o clamor que seu povo pediu
Ab Eb
Em Ezequiel Ele é o filho do Homem
Bb7 Eb
O maior dos homens que o mundo já viu

[Refrão]

Eb Eb/D Cm7
Em Daniel Ele é o tempo do tempo a cumprir
Eb Eb/D Cm7
Oseias é restauração é o amor a agir
Eb Eb/D Cm7
Em Joel Ele é o juiz sobre um povo pagão
Ab Eb
Amos e Obadias Ele é a punição
Bb7 Eb
Em Jonas perdoa a quem quer perdão

[Ponte]

Db Ab
Miqueias Ele é Mensageiro
Eb Bb
Naum Ele é o vingador
Db Ab Eb Bb
Habacuque Ele é a voz de Deus a gritar, Aviva povo adorador
Db Ab
Sofonias é o pastor zeloso
Eb Bb
Ageu a herança Ele vem restaurar
Db Ab Bb
Zacarias e Malaquias é o Sol da justiça e não se apagará

[Terceira Parte]

Eb Bb
Em Mateus é o filho de Deus a salvar
Eb Bb
Em Marcos é a mão de Deus a operar
Eb Bb
Em Lucas é o filho do Homem a Andar
Eb Bb Eb B
Em João e a porta do céu para o homem passar

[Quarta Parte]

E
Em Atos e Luz para Paulo
B
Romanos é nossa justificação
E
Coríntios nos limpa de todo pecado
B
Em Gálatas redime sua criação
E
Efésios é nossa riqueza insondável
B
Em Filipenses Ele é o supridor
E
Em Colossenses Ele é plenitude
B
Tessalonicenses é Rei
E B
Timóteo é mediador

E
Tito e Filemon amigo Ele é
B
Hebreus é aquele que honra a fé
E
Tiago é o modelador da igreja
B
Em Pedro é a pedra que o mal esmagou

E
Em João Ele é o puro amor
B
Em Judas Ele é resgatador
E
Em Apocalipse
A
Em Apocalipse Ele vem em glória e poder
E B
Nele está escrito, assim saiu vencendo pra vencer
E
Os seus pés são reluzentes
A
Seus cabelos, brancos como a lã
E
Jesus Cristo Rei da Glória
B
Ontem, hoje e amanhã
E
Sua igreja vai embora
A
Seu lugar não é aqui
E
Glorifica igreja amada
B E
Porque Ele já está vindo aí
A E
Porque Ele já está vindo aí
B E
Vencendo vem Jesus

Vencendo vem Jesus

NUEVO FORO DE MÚSICA

¿Tienes alguna duda, consulta, pregunta, consejo o algo para compartir sobre esta canción?

¡Puedes abrir un hilo en el FORO para que la comunidad te ayude! Hacer una pregunta

ACORDES PARA GUITARRA

PIANO UKELELE
D
D/C#
Bm7
A
Gmaj9
G
A7
Eb
Eb/D
Cm7
Ab
Bb
Bb7
Db
B
E


Las más tocadas de Daniel e Samuel

D
D/C#
Bm7
A
Gmaj9
G
A7
Eb
Eb/D
Cm7
Ab
Bb
Bb7
Db
B
E