El shaddai (Acordes)

Danny Berríos

Subida por Donlimon

Compartir


Cambiar Cifrado
Americano Latino

Cambiar Tonalidad
-1 +1
Imprimir FAQ
+A
-A

Texto

Desplazamiento

Transportador

Color de Fondo

Archivos

TONALIDAD, TAMAÑO, CIFRADO, SCROL.

Nos renovamos: Ahora puedes cambiar TODO haciendo clic en ICONO de la Guitarra () que aparece en la parte inferior de esta página.


LETRA CON ACORDES

        Dm                G                 C                 F

e----0--1-----------1-0--------------3-1--0-----1-0----------------------0--
b--3------3-----3--------3-------3----------1-------3------1-------1---3----
g-----------2-----2--------0---0---0----------0-------0------2---2---2------
d-------0-----0--------------0--------------------------2------3------------
a-----------------------------------------3----------------3----------------
e------|-----------------|-3---------------|-----------------|-----------------|-


     B                 E7                Am                A

e--|-1---------0-----|-------------0---|-----------------|-0---------0---0-|-
b--|---3-----3---3-1-|-3-------3-----3-|-1-------3-------|---------2---3---|-
g--|-----3-----------|---1---1---1-----|---2---2---2---2-|---2---2---------|-
d--|-3-----3---------|-----2-----------|-----2-------2---|-----2-----------|-
a--|-----------------|-2---------------|-0-------0-------|-0---------------|-
e--|-----------------|-----------------|-----------------|-----------------|-

     Dm                G                 C                 F

e--|-1-----------1-0-|-------------3-1-|-0-----1-0-------|---------------0-|-
b--|---3-----3-------|-3-------3-------|---1-------3-----|-1-------1---3---|-
g--|-----2-----2-----|---0---0---0-----|-----0-------0---|---2---2---2-----|-
d--|-0-----0---------|-----0-----------|---------------2-|-----3-----------|-
a--|-----------------|-----------------|-3---------------|-3---------------|-
e--|-----------------|-3---------------|-----------------|-----------------|-


     B                 E7                C                 C

e--|-1---------0-----|-------------0---|-----------------|-----------------|-
b--|---3-----3---3-1-|-3-------3-----3-|-1-------1-------|-1---------------|-
g--|-----3-----------|---1---1---1-----|---0---0---0---0-|-0---------------|-
d--|-3-----3---------|-----2-----------|-----2-------2---|-----------------|-
a--|-----------------|-2---------------|-3---------------|-3---------------|-
e--|-----------------|-----------------|-----------------|-----------------|-


DIOS LES BENDIGA Y ESPERO QUE LES GUSTE.


Video Clip de El shaddai


ACORDES PARA GUITARRA

PIANO UKELELE
Dm
G
C
F
B
E7
Am
A


TOP 20: Las más tocadas de Danny Berríos


Acordes

Cerrar
Dm
G
C
F
B
E7
Am
A

19.33

x

107