8 Line Poem

David Bowie

Acordes

Subida por cantaor


Más Versiones
Ver. 2 Ver. 3 Ver. 4 Ver. 5 Ver. 6

Cambiar Cifrado
Americano Latino

Cambiar Tonalidad
-1 +1

Partir Pantalla Imprimir FAQ

+A
-A


Ver solo la LETRA
  F / C                        F            C                    /

E|--------------------------------------------------8-------8-------|
B|----------------------------------------------------8-------8-----|
G|----------------------------------------5-7-7b9-------7b9-----7b9-|
D|-------------------5h7p5---5-6-6h7----7---------------------------|
A|------3------3-5/7-------7----------------------------------------|
E|---------3h5------------------------------------------------------|

D / E E7 F C F C /

E|-------5p4--------------------------------------------------------|
B|-----------5--------------6p5--------------6p5-6b8r6p5------------|
G|--7---------------------------5------------------------5----------|
D|--------------7p6-7p6-7--------------8h10-----------------3p2-----|
A|---------------------------------8-7------------------------------|
E|------------------------------------------------------------------|

F C / E / F

E|-----------------------15-----------------------------------------|
B|-----------13h15-15b17----15b17r15-13?15b17-15?13h15-15p13--------|
G|---3h5------------------------------------------------------------|
D|------------------------------------------------------------------|
A|------------------------------------------------------------------|
E|------------------------------------------------------------------|

D / G F / C

E|-----------------17b19--17-15p13----------------------------------|
B?13h15--15-13-15-----------------15b17----------------------------|
G|------------------------------------------------------------------|
D|------------------------------------------------------------------|
A|------------------------------------------------------------------|
E|------------------------------------------------------------------|

Tactful cactus by your / window / surveys the prairie of your/ room/
C (continued from above / F / C / F /

E|----------------------|--10----|----------------------------|----|
B|-----8----------------|--10----|--0-------------------------|----|
G|----------------------|--------|--1-------------------------|----|
D|----------------------|--------|--2-------------------------|----|
A|----------------------|--------|----------------------------|----|
E|----------------------|--------|----------------------------|----|

The mobile spins to its/ collision / Clara puts her head between her /

E|-------|---------------------------------|--------5--------------|
B|----1--|--1------------------------------|-----------------------|
G|----2--|--0------------------------------|---4/5-----------------|
D|----3--|--2------------------------------|-----------------------|
A|----3--|--3------------------------3-----|-----------------------|
E|-------|---------------------------------|-----------------------|

Paws / They?ve opened shops down on the/ Westside /

E|--------------------------|-------5-|--------------------|-------|
B|---1----------------------|---------|--1-----------------|--0----|
G|---0----------------------|--4/5----|--0-----------------|--1----|
D|---2----------------------|---------|--2-----------------|--2----|
A|---3-------------------3--|---------|--3-----------------|-------|
E|--------------------------|---------|--------------------|-------|

Will all the cacti find a/ home? / But the key to the /city is in/

E|--------------------------------------|--------------------------|
B|---1----------------------------------|--------------------------|
G|---2----------------2-----------------|--4--2--------------------|
D|---3----------------5-----------------|--5--3--------------------|
A|---3----------------------------------|--5--3--------------------|
E|--------------------------------------|--------------------------|

the sun that pins the branches to the/ sky oh /

C F C F /

E|--0--8-------6---------5---------8-----10------12-------13--------|
B|--1----8-------6--------------------------------------------------|
G|--0------97-----7--5-------7/9----9/10---10/12---12/14-----------|
D|--2---------------------------------------------------------------|
A|------------------------------------------------------------------|
E|------------------------------------------------------------------|

C F C /

E|--------8---------8-----------------------------------------------|
B|----------8----8----8--------------------8-----------8 -----------|
G|---7b9-------7b9------7b9r7p5------7-7b9-------5-7b9---7b9r7-5----|
D|------------------------------7------------5/7--------------------|
A|------------------------------------------------------------------|
E|------------------------------------------------------------------|

F C

E|------------------------------------------------------------------|
B|-------------8----------------------------------------------------|
G|-------5-7-5?7b9--------------------------------------------------|
D|--7--7------------------------------------------------------------|
A|------------------------------------------------------------------|
E|------------------------------------------------------------------|

ACORDES PARA GUITARRA

PIANO UKELELE
F
C
D
E
E7
G


Las más tocadas de David Bowie

F
C
D
E
E7
G