Compartir


Imprimir FAQ
+A
-A

Texto

Desplazamiento

Transportador

Color de Fondo

Archivos

-A
+A
Gtr I (E A D G B E) - 'Ritchie Blackmore - Rhythm'
Gtr II (E A D G B E) - 'Ritchie Blackmore - Lead'

Intro
  Q=188(8=s8)
 4/4
  Gtr I
  Wx4
|--------|


  H    Q  Q    +Q    Q   Q    Q     +W           +Q   Q  Q  Q    Q  Q  Q  Q
|------------|----------------1---|-(1)--------|-(1)-----------|--------------|
|------------|--------------------|------------|---------------|--------------|
|------------|--------------------|------------|---------------|--------------|
|------------|-----------3---(3)--|-(3)--------|-(3)-----------|--------------|
|---------8--|-(8)---------------|------------|---------x-----|-x--x--x--x---|
|------------|-------1--(1)--(1)--|-(1)--------|-(1)-----------|--------------|


  Q  E  E Q  E E   E E  Q  H      Wx3
|-------8--------|--------------|--------|
|-------8----x-x-|--------------|--------|
|-------5--------|-x-x/---------|--------|
|----------------|--------------|--------|
|-x--x-----------|--------------|--------|
|----------------|--------------|--------|


                                ~~~~~~~~~
  W          H    E  E Q    Q  +H.
|----------|--------------|-------------|
|----------|--------------|-------------|
|----------|--------------|-------------|
|----------|-----------1s=|=3--(3)------|
|----------|------x/-x----|-------------|
|----------|--------------|-------------|


 ~~~~~            ~~~~~~~~~~~~~~~
  +H     E e Q    W          +H.      q
|---------------|----------|-------------|
|---------------|----------|-------------|
|---------------|----------|----------x--|
|-(3)--------1s=|=3--------|-(3)---------|
|----------x----|----------|-------------|
|---------------|----------|-------------|


  a Q  E     E E E E e   E e E E q  E    +E
|----------------------|---------------------|
|----------------------|------------4b6==(4)-|
|------1b1.5---3-1-----|-1---3-1-------------|
|-1s3--------3-----3-1-|---3-----3-----------|
|----------------------|---------------------|
|----------------------|---------------------|


       ~~~~~~~~~~~~~~~~
  +E  +H..         +H     +Q   +q
|----------------|------------------|
|-(4)-(4)--------|-(4)----(4)r=(4)--|
|----------------|------------------|
|----------------|------------------|
|----------------|------------------|
|----------------|------------------|


                                                           ~~~~~~~~~~~
  a    +q    E e Q  E E   E E E E S S e E E   E    +E   Q  H      +H.      Q
|-----------------------|---1---------------|-------------------|--------------|
|-4b6==(4)r--4-1-4--1-0-|-1---1-------------|-------------------|--------------|
|-----------------------|-------4p3p1---3---|-1b2==(1)r---------|--------------|
|-----------------------|-------------3---3-|-----------3--3----|-(3)----------|
|-----------------------|-------------------|-------------------|--------------|
|-----------------------|-------------------|-------------------|--------------|


                                     ~~~~~~
  Q  E E E E E E   a    +E   E E E E Q.
|------------4---|-6b8==(6)r-x-4---6------|
|--------6-------|-------------------6----|
|------5---------|------------------------|
|----------------|------------------------|
|----------------|------------------------|
|----------------|------------------------|


 ~~~~~
              |-3-|
  +Q.   E E E E E E   E E E E E     E   Q
|---------4-6---7p6p|=4---6---4b5==(4)r-----|
|-(6)---6-----------|---6---6------(4)------|
|-------------------|-----------------------|
|-------------------|-----------------------|
|-------------------|-----------------------|
|-------------------|-----------------------|


                                  ~~~~~~
  E E a     H     e E   e E e E e Q.
|-----8b10==8r----8---|-7---6---8------|
|---6-----------------|-----------6----|
|---------------------|----------------|
|---------------------|----------------|
|---------------------|----------------|
|---------------------|----------------|


 ~~~~~
  +q   a      +Q       +Q    E E   E e E E     +Q   +Q
|--------------------------------|------------------------||
|-(6)--9pb10==(9)b11===(9)r--9---|-6-9--------------------||
|--------------------------------|-------8b10==(8)r=(8)---||
|--------------------------------|------------------------||
|--------------------------------|------------------------||
|--------------------------------|------------------------||


  $
  $$
                                                               2/4
  a Q  E     E E E E e   E     E E E E +e  Q       +W           +Q    Q
|----------------------|-------------------------|------------|-----------|
|----------------------|-------------------4b6===|=(4)--------|-(4)r------|
|------1b1.5---3-1-----|-1b1.5---3-1-------------|------------|-----------|
|-1s3--------3-----3-1-|-------3-----3-(3)-------|------------|-----------|
|----------------------|-------------------------|------------|-----------|
|----------------------|-------------------------|------------|-----------|


 4/4
  a    +Q    E E Q  E E   E E E E E E E E   E E a    +H.        +H.       Q
|-----------------------|---1-------------|-------------------|-----------x----|
|-4b6==(4)r--4-1-4--1---|-1---1-----------|-----4b6==(4)------|-(4)r-----------|
|---------------------4-|-------4-3-1-----|-------------------|----------------|
|-----------------------|-------------3p1-|-3p0---------------|----------------|
|-----------------------|-----------------|-------------------|----------------|
|-----------------------|-----------------|-------------------|----------------|


                        To Dbl. Coda                             To Coda
                                                      Gtr II
    W                W                  W               H       Q     E E
|------------------|----------------|-----------------|----------------------||
|------------------|----------------|-----------------|----------------------||
|------------------|----------------|-----------------|-----------------3b5==||
|------------------|----------------|-----------------|----------------------||
|------------------|----------------|-----------------|----------------------||
|------------------|----------------|-----------------|----------------------||
|
| Gtr I
|                                                               |-3-|
| a Q  E E e E E E   E  E  E E H      a Q  E E Q  E E   E E E E E E E E E
|------------------|----------------|-----------------|----------------------||
|------------------|----------------|-----------------|----------------------||
|------------------|----------------|-----------------|----------------------||
|------1---3-1-----|-1-(3)-3-1------|-----------------|-------1--------------||
|-1s3----3-----2-3-|----3------3----|-1s3--2---2--1---|-1-2-3---2p1---1------||
|------------------|----------------|--------4------4-|-------------4--------||


 Guitar Solo
             ~~~
  +e   E    +H       +e     E        +E   E    +H       +E    +E
|----------------------------------|--------------------------------|
|----------------------------------|--------------------------------|
|-(3)r-3b5==(3)------(3)r---3b5====|=(3)r-3b5==(3)------(3)r==(3)---|
|----------------------------------|--------------------------------|
|----------------------------------|--------------------------------|
|----------------------------------|--------------------------------|
|
|  PM                                 PM
|                     |----3-----|                       |---3----|
|  E   E     E  E Q   E   E      E    E   E     E  E Q   E  E     E
|----------------------------------|--------------------------------|
|----------------------------------|--------------------------------|
|----------------------------------|--------------------------------|
|------------3----1---1h==3p=====1-|------------3----1---1h=3p====1-|
|----------------------------------|--------------------------------|
|--1-------------------------------|--1-----------------------------|


                  |-3-|               |-3-|
  S S S S E E E e E E E   H.          E E E
|-----------------------|-----------------1---|
|-----------------------|---------------1-----|
|-3h4p3p1-----1---3p1---|-1-----------3-------|
|---------3-----3-----3-|---------------------|
|-----------------------|---------------------|
|-----------------------|---------------------|
|
| PM                      PM
|                 |-3-|               |-3-|
| E   E   E E Q   E E E   E  E E E Q  E E E
|-----------------------|---------------------|
|-----------------------|---------------------|
|-----------------------|---------------------|
|---------3-x-1---1h3p1-|------3---1--1h3p1---|
|-----------------------|---------------------|
|-1---------------------|-1-------------------|


                                                   ~~~~
          |--3--|               |--3--|
  S S S S E E   E E     E Q     E E   E E E a     +H
|-----------------------------|-------------8b10==(8)r-----|
|-4p3p1-4---------------------|-------6---6----------------|
|-------4p3p1-----3-------1h==|=3s7-----7------------------|
|---------------3-------3-----|----------------------------|
|-----------------------------|----------------------------|
|-----------------------------|----------------------------|
|
| PM                      PM    PM
| E   E   E   E   Q       E E   E   E   E E        Q    Q
|-----------------------------|----------------------------|
|-----------------------------|----------------------------|
|---------3-------1b1.5-------|---------3----------1----3--|
|-------------------------3---|----------------------------|
|-1---------------------------|-1--------------------------|
|-----------------------------|----------------------------|


                               ~~~
  E E E E E S S E E   E E E E +Q   E E
|-8-6s4---6-4h5p4---|--------------------|
|-------6-----------|-4-6---6-(6)----6---|
|-----------------5-|--------------x-----|
|-------------------|--------------------|
|-------------------|--------------------|
|-------------------|--------------------|
|
| PM    PM            PM
| E E E e Q     E E   E E E E  Q   E E
|-------------------|--------------------|
|-------------------|--------------------|
|-------------------|--------------------|
|-----3---1-----3---|-----3----1---3-----|
|-------1-----------|-------x------------|
|-1-----------------|-1------------------|


                                  ~~~~~~
  |-3-|     |-3-|       |-3-| |-3-|
  E E E E E E E E E E   E E E E E E +Q    E   E
|---------------------|-------------------4-----|
|-6p4---4-6-6p4---4-6-|-6p4---4-6-6-(6)-------6-|
|-----5---------5-----|-----5-------------------|
|---------------------|-------------------------|
|---------------------|-------------------------|
|---------------------|-------------------------|
|
|                       ~~
| W                     H.               +Q
|---------------------|-------------------------|
|---------------------|-------------------------|
|---------------------|-------------------------|
|-6-------------------|-5----------------(5)---|
|---------------------|-------------------------|
|---------------------|-------------------------|


  E a    +Q.      E E q    E E E E    +Q   +E  +E
|-6-6b8==(6)r-----6-4----|-4-6---------------------|
|---------------------6--|-------------------------|
|------------------------|-------3b5==(3)--(3)r(3)-|
|------------------------|-------------------------|
|------------------------|-------------------------|
|------------------------|-------------------------|
|
|               PM|
| e       E   E e q   Q    Q   E E    +H
|------------------------|-------------------------|
|------------------------|-------4----(4)----------|
|------------------------|-------3----(3)----------|
|-------------3---1---3--|-------------------------|
|---------------1--------|-------------------------|
|-1----------------------|-------------------------|


  E E E E E E S S S  S    E E E E E E E E
|-----4---6---7p6p4h=6--|-6---4---7-x-6---|
|-6-----------------(6)-|-----------------|
|-----------------------|-----------------|
|-----------------------|-----------------|
|-----------------------|-----------------|
|-----------------------|-----------------|
|
| e E e E Q   E   E       e E e E Q   E E
|-----------------------|-----------------|
|-----------------------|-----------------|
|-----------------------|-----------------|
|-----3---1---3---------|-----3---1---3---|
|-----------------------|-----------------|
|-1---------------------|-1---------------|

          |3|             |---3---|
  e e E E E q E E   E S S S S E   E E Q   S S
|-4-6---7---6-----|-4-6p4h6p4-------4-6p==4---|
|---------------6-|---------------6---------6-|
|-----------------|---------------------------|
|-----------------|---------------------------|
|-----------------|---------------------------|
|-----------------|---------------------------|
|
| e E e E Q   E E   e E   e     E   Q   E E
|-----------------|---------------------------|
|-----------------|---------------------------|
|-----------------|---------------------------|
|-----3---1---3---|-------3---------1---3-----|
|-----------------|---------------------------|
|-1---------------|-1-------------------------|

  |---3---| |--3--| |---3---| |--3--|       |---3---|
  E E   S S E E   E E E   S S E E   E   E E E E     E E E a E E
|-4-----6s7s6p4-----4-----6s7s6p4-----|-6---6p4-----------------|
|-----------------6-----------------6-|---6---------6p4---------|
|-------------------------------------|-----------------5-5s3-1-|
|-------------------------------------|-------------------------|
|-------------------------------------|-------------------------|
|-------------------------------------|-------------------------|
|
| PM--------|       PM--|         PM----|   PM--------|     PM
| E   e     e   E   e   E     E   E     e E e    E    e E   E E
|-------------------------------------|-------------------------|
|-------------------------------------|-------------------------|
|-----------1-------3---1-------------|-----1---------3---------|
|-----3-------------------------------|---------(0)---------3---|
|-1-------------------------------x---|-1-----------------------|
|-------------------------------------|-------------------------|

                                      |--3--|    |--3--|
  E    +E   E     E E E E E   E     E E E   E Q  E e   E
|---------------------------|--------------------------1--|
|---------------------------|----------------------1------|
|-3b4==(3)r-1b1.5---3p1-----|-1b1.5---3p1---3-1--3--------|
|-----------------3-----3p1-|-------3-------3-------------|
|---------------------------|-----------------------------|
|---------------------------|-----------------------------|
|
| e     E   e     E Q   E E   e     E e   E   Q  E   E
|---------------------------|-----------------------------|
|---------------------------|-----------------------------|
|---------------------------|-----------------------------|
|-----------3-------1---3---|---------3-------1--3--------|
|---------------------------|-----------------------------|
|-1-------------------------|-1---------------------------|


                              ~~~~~~
      |-3--|
  Q   E  E E  Q   Q    E  E E E +Q    E   E
|----(1)-------------|----------------------|
|-4---1--4-----------|----------------1-----|
|--------4-3p=1------|-1--3---3-(3)-------3p|
|------------(0)--3--|----------------------|
|--------------------|----------------------|
|--------------------|----------------------|
|
|                      ~~
| W                    H.            +Q
|--------------------|----------------------|
|--------------------|----------------------|
|--------------------|----------------------|
|-6------------------|-5-------------(5)---|
|--------------------|----------------------|
|--------------------|----------------------|

          |-3-|           |-3-|
  E E E e E E E E     E   E E E E E +Q   +e   E
|-----------------------|------------------------|
|-----------------------|------------------------|
|-1---3---3p1---1b1.5---|-3p1-----------------4s=|
|---3---3-----3-------3-|-----3p1----------------|
|-----------------------|---------3-(3)--(3)/----|
|-----------------------|------------------------|
|
|       PM|
| e E E e q     Q         Q     E E +H
|-----------------------|------------------------|
|-----------------------|---------4-(4)----------|
|-----------------------|---------3-(3)----------|
|-----3---1-----3-------|------------------------|
|-------1---------------|------------------------|
|-1---------------------|------------------------|


  |--3--|     |-3-|       |--3--|     |-3-|
  E E   E e E E E E e E   E E   E E E E E E Q
|-----------------------|-----------------------|
|-----------------------|-----------------------|
|-5---------4s5-------4s|=5---------4s5---------|
|---8---6-------8-6-----|---8---6-------8-6-----|
|---------8---------8---|---------8---------8---|
|-----------------------|-----------------------|
|
| e   E   e E Q     E E   e   E   e E Q     E E
|-----------------------|-----------------------|
|-----------------------|-----------------------|
|-----------------------|-----------------------|
|---------3---1-----3---|---------3---1-----3---|
|-----------------------|-----------------------|
|-1---------------------|-1---------------------|


  |--3--| |--3--| |-3-| |--3--|
  E E   E E E   E E E E E E   E
|--------------------------------|
|--------------------------------|
|---------6p5-----4s5------------|
|-5-6---8-------8-----8p6p5------|
|-----------------------------8--|
|--------------------------------|
|
| e   E   e   E   Q     E   E
|--------------------------------|
|--------------------------------|
|--------------------------------|
|---------3-------1-----3--------|
|--------------------------------|
|-1------------------------------|


  |-3-| |-3-| |-3-| |-3-|   |-3-| |-3-| |-3-| |-3-|
  E E E E E E E E E E E E   E E E E E E E E E E E E
|-------------------------|-------------------------|
|-------------------------|-------------------------|
|-------6p5---4s5---------|-------6p5---4s5-4-6p5-4-|
|-5-6-8-----8-----8-6p5---|-5-6-8-----8-------------|
|-----------------------8-|-------------------------|
|-------------------------|-------------------------|


  |--3--| |--3--| |-3-| |--3--|
  E E   E E E   E E E E E E   E
|--------------------------------|
|--------------------------------|
|-4s5-----6p5-----4s5---6p5h==8--|
|-------8-------8-----8----------|
|--------------------------------|
|--------------------------------|
|
| E   E   E   E   Q     E   E
|--------------------------------|
|--------------------------------|
|---------3-------1--------------|
|-----------------------3--------|
|-1------------------------------|
|--------------------------------|


                                          ~
  |-3-| |-3-| |-3-| |-3-|   |-3-| |-3-|                |-3-| |-3-| |-3-|
  E E E E E E E E E E E E   E E E E E E a h      a E E E E E E E E E E E
|-------------------------|--------------------|---------------------------|
|-------------------------|--------------------|---------------------------|
|-8p5---6p5---4h5---------|-------6p5---4s5----|-4s5---------------6-5-----|
|-----8-----8-----8p6p5---|-5h6h8-----8--------|-----8-6p5---5-6-8-----8p==|
|-----------------------8-|--------------------|-----------8---------------|
|-------------------------|--------------------|---------------------------|


          ~~                                   ~~~~
  |3|              |--------3--------|              |3-|
  Q E E E Q.   E   Q a    +Q   a    +Q   a    +Q   +Q  e
|----------------|---------------------------------------|
|----------------|---------------------------------------|
|---------5----5-|-3-3b5==(3)r-3b5==(3)r-3b5==(3)r=(3)-1-|
|-6-5-6-8--------|---------------------------------------|
|----------------|---------------------------------------|
|----------------|---------------------------------------|
|
| Gtr I
| W                W
|----------------|---------------------------------------|
|----------------|---------------------------------------|
|----------------|---------------------------------------|
|----------------|-3-------------------------------------|
|----------------|---------------------------------------|
|----------------|---------------------------------------|


              D.S. al Coda
  e E e a    +E  +Q   +Q
|--------------------------||
|--------------------------||
|-3---1-3b5==(3)-(3)r=(3)--||
|--------------------------||
|--------------------------||
|--------------------------||


   Organ Solo
    &
    Gtr I
          PM             PM
                                    |-3-|
    e E E e Q  S S S S   E E e E Q  E E E
||---------------------|------------------|
||o--------------------|------------------|
||---------------------|------------------|
||------3---1--1h3p1h3-|-----3---1--1h3p1-|
||o-------3------------|------------------|
||--1------------------|-1----------------|


                     PM    PM
             |-3-|              |-3-|
  e E e E Q  E E E   E E E e Q  E E E
|------------------|--------------------|
|------------------|--------------------|
|------------------|--------------------|
|-----3-x-1--1h3p1-|-----3---1--1h3p1---|
|------------------|-------1------------|
|-1----------------|-1------------------|


  PM  PM         PM    PM             PM---|    PM           PM    PM---|
  E E E E Q      E E   E E E E Q      q    Q  E E Q  a E E   E E E e q  E E
|--------------------|-------------------|-----------------|----------------|
|--------------------|-------------------|-----------------|----------------|
|-----3---1b1.5------|-----3-x-1b1.5-----|-----------------|----------------|
|-------x--------3---|----------------3--|----3---1--1h3---|-----3---1--3---|
|-1------------------|-1-----------------|------3----------|-------1--------|
|--------------------|-------------------|-1---------------|-1--------------|


             ~~              PM    PM|
  W          H.      +Q      E E E e Q  Q    +Q   e E +H
|----------|---------------|---------------|------------------||
|----------|---------------|---------------|--------4-(4)----o||
|----------|---------------|---------------|--------3-(3)-----||
|-6--------|-5-------(5)--|-----3---1--3--|-(3)----2-(2)-----||
|----------|---------------|-------1-------|------0-3-(3)----o||
|----------|---------------|-1-------------|------------------||
|
| W          W               W                W
|----------|---------------|---------------|------------------||
|----------|---------------|---------------|-----------------o||
|----------|---------------|---------------|------------------||
|----------|---------------|-3-------------|------------------||
|----------|---------------|---------------|-----------------o||
|----------|---------------|---------------|------------------||
                           |-substitute on repeat

                   PM  PM
  e e e E Q  E E   E E e E E E E e   e e e E Q  E E   e e e E Q  E E
|----------------|-----------------|----------------|-----------------|
|----------------|-----------------|----------------|-----------------|
|----------------|-----------------|----------------|-----------------|
|-----3---1--3---|-----3---------3-|-----3---1--3---|-----3---1--3----|
|----------------|---------1h2h3---|----------------|-----------------|
|-1--------------|-1---------------|-1--------------|-1---------------|


  PM                  PM   PM         PM   PM           PM    PM---|
  Q  E E Q  S S S S   Q  E E Q  Q     Q  E E Q  a E E   E E E e q  E E
|-------------------|---------------|-----------------|----------------|
|-------------------|---------------|-----------------|----------------|
|----3---1--1h3p1h3-|----3---1------|-----------------|----------------|
|------x------------|------3--------|----3---1--1h3---|-----3---1--3---|
|-1-----------------|-1---------8--|------3----------|-------1--------|
|-------------------|---------------|-1---------------|-1--------------|


                              D.S.S. al Dbl. Coda
             ~~
  W          H.      +Q      W          W
|----------|---------------|----------|-----------||
|----------|---------------|----------|-----------||
|----------|---------------|----------|-----------||
|-6--------|-5-------(5)--|-3--------|-----------||
|----------|---------------|----------|-3---------||
|----------|---------------|----------|-----------||


  &&
                            |-3-|                                 |-3-|
  a Q  E E Q  E E   E E E E E E E Q     a Q  E E Q  E E   E E E E E E E Q
|-----------------|------------------||-----------------|------------------||
|-----------------|------------------||-----------------|------------------||
|-----------------|------------------||-----------------|------------------||
|-----------------|-------1----------||-----------------|-------3----------||
|-1s3--2---2--1---|-1-2-3---2p1---1--||-3s5--4---4--3---|-3-4-5---4p3---3--||
|--------4------4-|-------------4----||---0----6------6-|-------------6----||


 Verse 1
  Gtr I
  PM                 ~~~                                             ~
                                             |-3--|
  e E E E Q  a Q    +H.      E e   Q  Q     +E  E E e E   Q      E E H
|-----------------|--------------|----------------------|-----------------|
|-----------------|------------x-|----------------------|-----------------|
|-----------------|------------x-|----5pb7r=(5)p3p2-3---|-3b3.5-----------|
|-----5---3--3h5--|-(5)----------|----------------------|--------5-3-5----|
|-----------------|--------------|----------------------|-----------------|
|-3---------------|--------------|----------------------|-----------------|


  PM          PM    PM                PM-----|   PM
  E E e E E E e E   E E e E e E e E   Q  E e E E E E   E     E E E +Q   +Q
|-----------------|-----------------|----------------|-------------------------|
|-----------------|-----------------|----------------|-------------------------|
|-----5---3-------|-----------------|----------------|-3b3.5-------------------|
|-------------5---|-----5---3---5---|----5---3---5---|-------5---5-(5)--(5)/---|
|-3---------------|-3---------------|------5---------|-------------------------|
|-----------------|-----------------|-3--------------|-------------------------|


  Q  H.        H    H       E  E E e Q  Q    +Q   E  E +H
|------------|-----------|-----------------|------------------|
|------------|------x----|-----------------|---------6-(6)----|
|------------|-----------|-----------------|---------5-(5)----|
|----8-------|-7---------|-------5---3--5--|-(5)--x-----------|
|------------|-----------|---------x-------|------------------|
|------------|-----------|-(3)-------------|------------------|


  PM-|   PM  PM                         PM-|
  Q  E E E E E E   E     E E E +H       Q  e E Q  E E   e e e E +H
|----------------|--------------------|---------------|----------------|
|----------------|--------------------|---------------|----------------|
|----------------|-3b3.5--------------|---------------|-3--------------|
|----5---3---5---|-------5---5-(5)----|----5---3--5---|---5-3-5-(5)----|
|----------------|--------------------|---------------|----------------|
|-3--------------|--------------------|-3-------------|----------------|


     PM  PM  PM                     PM-|   PM  PM    PM--------|
  Q  e E e E e E   E E E E +H       Q  e E E E E E   Q  E E Q  E E
|----------------|----------------|----------------|----------------|
|----------------|----------------|----------------|----------------|
|----------------|-3--------------|----------------|----------------|
|----5---3---5---|---5-3-5-(5)----|----5---3---5---|----3---3--5----|
|----------------|----------------|----------------|------5---------|
|----------------|----------------|-3--------------|-3--------------|


  ~                     PM-|
  W          W          Q  q  Q  Q    Q  E E E E +Q
|----------|----------|-------------|------------------||
|----------|----------|-------------|------------------||
|----------|----------|-------------|------------------||
|-8--------|-7--------|----5--3--5--|----5---3---------||
|----------|----------|-------------|----------5-(5)---||
|----------|----------|-3-----------|-3----------------||


 Harmonica Solo
  PM-|   PM-|     PM                   PM-|   PM-|     PM
                                                                  |-3-|
  Q  E E Q  E E   q  E     E E E E E   Q  E E Q  E E   Q  E E E E E E E
|---------------|--------------------|---------------|------------------|
|---------------|--------------------|---------------|------------------|
|---------------|----3b3.5-----------|---------------|----3-------------|
|----5---3--5---|------------3-------|----5---3--5---|--------3---------|
|---------------|--------------5-4h5-|---------------|----------5-4h5p4-|
|-3-------------|-3------------------|-3-------------|-3----------------|


     PM  PM-|     PM               PM-|   PM-|
  Q  E E Q  E E   q  E E E E E E   Q  E E Q  E  e    E e e E +Q   Q
|---------------|----------------|-----------------|------------------|
|---------------|----------------|-----------------|------------------|
|---------------|----3-----------|-----------------|-3----------------|
|----5---3--5---|--------3-------|----5---3--5-(5)-|---5-3-5-(5)------|
|---------------|----------5-4h5-|-----------------|------------------|
|---------------|-3--------------|-3---------------|------------------|


  ~~~~~~~~~~~~~~~~~~~~~~~~~~~~~~
  H    +Q.   E   +W           W          Q  E  E +H
|--------------|------------|----------|----------------|
|--------------|------------|----------|-------6-(6)----|
|--------------|------------|----------|-x--x--5-(5)----|
|-8----(8)---7-|-(7)--------|-5--------|-x--x-----------|
|--------------|------------|----------|----------------|
|--------------|------------|----------|----------------|


                                       PM              PM
  Q  E E E E E E   Q  E E E E E E   Q  e E Q  E E   E  e Q  Q  E E
|----6-----------|----------------|---------------|----------------|
|----6-----------|----------x-----|---------------|----------------|
|--------x-x-x-x-|----x-x-x-x-x---|---------------|----5-----------|
|----------------|----------------|-------------x-|-x--5----x--x-x-|
|----------------|----------------|------x--------|----------------|
|----------------|----------------|----6----------|----------------|


                                           PM              PM
  Q  E E E E E E   Q  Q  e E Q    E E  E E Q  E E   E E Q  Q  Q
|----6-----------|--------------|-6-6-------------|--------------|
|----6-----------|--------------|-6-6-------------|--------------|
|--------x-x-x-x-|-x-----x-x-x--|-----------------|-x------------|
|-x--------------|----x---------|------3---5--x-x-|---3----5-----|
|----------------|--------------|-----------------|--------------|
|----------------|--------------|-----------------|--------------|


  ~                          PM
  W          H    Q  +Q      E E Q  Q  Q    Q  E E +H
|----------|---------------|--------------|---------------||
|----------|---------------|--------------|------6-(6)----||
|----------|---------------|--------------|------5-(5)----||
|-8--------|-7----8--(8)--|-5------3--5--|---------------||
|----------|---------------|--------------|---------------||
|----------|---------------|--------------|---------------||


 Verse 2
     PM     PM                          PM        PM
  Q  E E Q  E E   E E Q      Q   E  E   Q  E E Q  E E   Q      E E Q  a Q
|---------------|---------------------|---------------|----------------------|
|---------------|---------------------|---------------|----------------------|
|---------------|-x---3b3.5-----------|---------------|-3b3.5----------------|
|----5---3--5---|------------5------5-|----5-x-3--5---|--------5---3--3h5----|
|---------------|---------------(5)---|---------------|----------5-----------|
|---------------|---------------------|-3-------------|----------------------|


  PM-|            PM              PM   PM
  Q  E E Q  E E   Q  E E Q  e E   Q  E e Q  e E   E E E E +Q   e E
|---------------|---------------|---------------|-------------------|
|---------------|---------------|---------------|-------------------|
|---------------|---------------|---------------|-3-----------------|
|----5---3--5---|----5---3--5---|----5---3--5---|---5-3-5-(5)--3----|
|---------------|------x--------|------5--------|-------------------|
|-3-------------|-3-------------|-3-------------|-------------------|


                             PM
  W          H.      +Q      q  E E Q  Q    E E E E +H
|----------|---------------|--------------|----------------|
|----------|---------------|--------------|-------6-(6)----|
|----------|---------------|--------------|-x-x-x-5-(5)----|
|-8--------|-7-------(7)--|----5-x-3--5--|----------------|
|----------|---------------|--------------|----------------|
|----------|---------------|-3------------|----------------|


  PM              PM              PM              PM
  Q  E E Q  E E   Q  E E Q  E E   Q  E E Q  E E   Q  E E Q  E E
|---------------|---------------|---------------|----------------|
|---------------|---------------|---------------|----------------|
|---------------|---------------|---------------|----------------|
|----5---3--5---|----5---3--5---|----5---3--5---|----5---3--5----|
|------x--------|------x--------|------x--------|------x---------|
|-3-------------|-3-------------|-3-------------|-3--------------|


  PM              PM  PM-----|     PM
  Q  E E Q  E E   E E E E Q  E E   Q  E E Q  E E   E E E E +Q   e E
|---------------|----------------|---------------|-------------------|
|---------------|----------------|---------------|-------------------|
|---------------|----------------|---------------|-3-----------------|
|----5---3--5---|-----5---3--5---|----5---3--5---|---5-3-5-(5)--3----|
|------x--------|-3-----5--------|------x--------|-------------------|
|-3-------------|----------------|-3-------------|-------------------|


  W          H.      +Q      W
|----------|---------------|------|
|----------|---------------|------|
|----------|---------------|------|
|-8--------|-7-------(7)--|-5----|
|----------|---------------|------|
|----------|---------------|------|


  <
  H       Q.   E    Q  E     E E E E e   E     E E E E E a     +Q
|----------------||--------------------|----------------------------|
|----------------||--------------------|-----------------8b10==(8)--|
|----------------||----5b5.5---7-5-----|-5b5.5---7-5----------------|
|-5tr3----5----5s||=7--------7-----7-5-|-------7-----7--------------|
|----------------||--------------------|----------------------------|
|----------------||--------------------|----------------------------|


  +E   a     +Q.    a     +Q    a     +Q
|--------------------------------------------|
|-(8)r-8b10==(8)r---8b10==(8)r--8b10==(8)r---|
|--------------------------------------------|
|--------------------------------------------|
|--------------------------------------------|
|--------------------------------------------|


 2/4                       4/4
  a     +Q    a     +Q      a     +Q    E E Q  E E
|-------------------------|------------------------|
|-8b10==(8)r--8b10==(8)r--|-8b10==(8)r--8-5-8--5---|
|-------------------------|----------------------8-|
|-------------------------|------------------------|
|-------------------------|------------------------|
|-------------------------|------------------------|


  E E E E E E E E   E E a     +Q   +E   a     +Q.
|---5-------------|-----------------------------------|
|-5---5-----------|-----8b10==(8)--(8)r-8b10==(8)r----|
|-------8-7-5-----|-----------------------------------|
|-------------7-5-|-7-x-------------------------------|
|-----------------|-----------------------------------|
|-----------------|-----------------------------------|


                                                       PM
                                      |-3-|
  a     +Q.    a     +E  +Q    a     +E  +Q    a Q  E  e  E E E E
|--------------------------------------------|--------------------|
|-8b10==(8)r---8b10==(8)-(8)r--8b10==(8)r(8)-|--------------------|
|--------------------------------------------|--------------------|
|--------------------------------------------|------5--5--7-5-----|
|--------------------------------------------|-5s7----(7)-----6-7-|
|--------------------------------------------|--------------------|


  E E E E Q  +Q      Q  Q  Q  Q    Q  Q  Q  Q
|------------------|-------------|---------------||
|------------------|-------------|---------------||
|------------------|-------------|---------------||
|-5---7-5----------|-------------|---------------||
|---7-----7--(7)--|-------------|-0--1--2--3----||
|------------------|-0--1--2--3--|---------------||


 Guitar Solo
  Gtr II
                  |--3---|    |--3--|  |--3---|
  H.              E  E   E    E E S S  E E    E  +E       +E   Q
|--------------------------|--------------------------------------|
|--------------------------|--------------------------------------|
|------------------------7-|----7-8p7-----------------------------|
|-7tr10-----------7-10-----|-10-------10-7---10-(10)b11==(10)r-7--|
|--------------------------|--------------------------------------|
|--------------------------|--------------------------------------|
|
| Gtr I
|                 PM------------------|
| E     E E e E E E    e      q        E   E      Q            Q
|--------------------------|--------------------------------------|
|--------------------------|--------------------------------------|
|---------5---7-5----------|--------------------------------------|
|-----------7-----7----5---|-----------7----------5------------7--|
|-7------------------------|---------------x----------------------|
|--------------------------|--5-----------------------------------|


  |-3-|              |----3----|
  E E E a     +Q     E     E   E E     +E
|-----5--------------------------------------|
|---5---8b10==(8)r---5-----5---5-8b10==(8)r--|
|-7------------------5-----------------------|
|--------------------------------------------|
|--------------------------------------------|
|--------------------------------------------|
|
| Q            E   E E       E   Q
|--------------------------------------------|
|--------------------------------------------|
|--------------------5b5.5-------------------|
|--------------7---x---------7---5-----------|
|--------------------------------------------|
|-5------------------------------------------|


  |-3-|           |-3-|        |----3-----|
  E E E E    +E   E E E a     +E   a     +Q
|-----5---------------------------------------|
|-5-5---8b9==(8)r-5-5-5-8b10==(8)r-8b10==(8)r-|
|-5---------------5-5-------------------------|
|---------------------------------------------|
|---------------------------------------------|
|---------------------------------------------|
|
| PM---------|
| Q     E     e   Q            Q
|---------------------------------------------|
|---------------------------------------------|
|---------------------------------------------|
|-------7---------5------------7--------------|
|-------------7-------------------------------|
|-5-------------------------------------------|


   ~~~
                         |---3---|
  +W                     Q   Q   q   E E S S S S
|----------------------|-5------------------------|
|-(8)------------------|-----8---7---5------------|
|----------------------|-----------------8p7-5----|
|----------------------|-----------------------7--|
|----------------------|--------------------------|
|----------------------|--------------------------|
|
|  PM                    PM
|  E  E E e Q      E E   E E   E   e E E Q
|----------------------|--------------------------|
|----------------------|--------------------------|
|-------7---5b5.5------|-------5-----7-5----------|
|---------7------------|-----------7-----7--------|
|--5---------------7---|-5------------------------|
|----------------------|--------------------------|


                                          ~
      |--3--| |-3-| |-3-|                    |--3--|
  e E E E   E E E E E E E   E    +E   E E Q  e E   E
|-------------------------|------------------------5-|
|-------------------------|--------------------5-----|
|-7---7p5-----7p5---7p5---|-5b6==(5)r--------7-------|
|---7-------7-----7-----7-|-----------7-5-7--0-------|
|-------------------------|--------------------------|
|-------------------------|--------------------------|
|
| PM                        PM--------|      PM
| Q   E   E   Q     Q       Q         E E Q  E   E
|-------------------------|--------------------------|
|-------------------------|--------------------------|
|-------------------------|--------------------------|
|-----7-------5-----7-----|-----------7---5----------|
|---------7---------------|------------------7-------|
|-5-----------------------|-5-----------x------------|

              |-3-|            |-3-|
  a     +Q    e E E E     +E   E e E
|-----------------5----------------5-|
|-8b10==(8)r--5-5---8b10==(8)r-5-5---|
|-------------5----------------5-----|
|------------------------------------|
|------------------------------------|
|------------------------------------|
|
|        W
|------------------------------------|
|------------------------------------|
|------------------------------------|
|-------10---------------------------|
|------------------------------------|
|------------------------------------|


  E     +E    E  E q  E E   H.         Q
|-8b10==(8)r--8--5h8------|--------------------|
|------------(8)------5-8p|=5------------------|
|-------------------------|--------------------|
|-------------------------|--------------------|
|-------------------------|--------------------|
|-------------------------|--------------------|
|
| ~~~~~                     PM    PM
| H.                  Q     Q   e e Q  S S S S
|-------------------------|--------------------|
|-------------------------|--------------------|
|-------------------------|--------------------|
|-9-----------------------|-----7---5--5h7p5h7-|
|-------------------------|-------7-----------

HERRAMIENTAS ACORDESWEB:


LETRA DE LA CANCIÓN:

Ver la letra sola (sin acordes)

OTRAS VERSIONES DE LA MISMA CANCIÓN:

Ver. 2

DESCARGAR PDF / IMPRIMIR CANCIÓN



ACORDES PARA GUITARRA

PIANO UKELELE


TOP 20: Las más tocadas de Deep Purple


Toca una Canción al Azar de Deep Purple

Acordes

Cerrar

09.34


231