No One Came (Acordes)

Deep Purple

Full Álbum: Fireball (1971)
Subida por Deyby71

Compartir


Imprimir FAQ
+A
-A

Texto

Desplazamiento

Transportador

Color de Fondo

Archivos

-A
+A
|------------|------------|------------|----------------|
|--2---2--2--|--2---2--2--|--2---2--2--|--2---2--2---2--|
|------------|------------|------------|----------------|
|------------|------------|------------|----------------|

                       cause I'm...                              take too long
                       because I...                              worn
                       I must...                                 they really...
|-------------------|---------------------|-------------------|---------------------|
|*-2---2-----2---2--|--2-----2---2-----2--|--2---2-----2---2--|--2-----2---2-----2--|
|*------------------|---------------------|-------------------|---------------------|
|-------------------|---------------------|-------------------|---------------------|

                                               that I...
                                               as they...
                                               could I...
|------------------|---------------------|--------------------------|
|-2---2-----2---2--|--2-----2---2-----2--|--0-----0-----------------|
|------------------|---------------------|-----4-----4--0-----0-----|
|------------------|---------------------|-----------------4-----4--|

                                               be like...
                                               paper...
                                               who's...
|-----------------------|-------------------|-------------------|
|--2---2-----2---2---2--|--2---2-----2---2--|--2-----2---2---2--|
|-----------------------|-------------------|-------------------|
|-----------------------|-------------------|-------------------|

|-----------------------|-------------------|-------------------|
|--2---2-----2---2---2--|--2---2-----2---2--|--2-----2---2---2--|
|-----------------------|-------------------|-------------------|
|-----------------------|-------------------|-------------------|

|--------------------------|------------------|---------------------|
|--0-----0-----------------|--2--2-----2---2--|--2-----2---2-----2--|
|-----4-----4--0-----0-----|------------------|---------------------|
|-----------------4-----4--|------------------|---------------------|

   big and...
   write...
   come and...
|-------------------|-----------------------|-------------------|
|-------------------|-----------------------|-------------------|
|--4---4-----4---4--|--4-----4---4---2---2--|--4---4-----4---4--|
|-------------------|-----------------------|-------------------|

                                               shiny...
                                               another one...
                                               fun and...
|-----------------------|-------------------|-----------------------|
|-----------------------|-------------------|----------------2------|
|-----------2-----2--2--|--4---4-----4---4--|--4-----4---4-------2--|
|--0--2--4-----4--------|-------------------|-----------------------|

                                                  no one came...
                                                  no one came...
                                                  no one came...
|-------------------|-----------------------|--2--2--------------------|
|-------------------|-----------------2--2--|-----------0--0--0--1--2--|
|--4---4-----4---4--|-----------2--4--------|--------4-----------------|
|-------------------|--0--2--4--------------|--------------------------|

                                                           really hot
                                                           is really..
                                                           who's he...
|-----2-----2------2--------|-----2-----2------2--------|-----2-----2------2--------|
|---------------0-----1--2--|---------------0-----1--2--|---------------0-----1--2-*|para o
|--0-----0------------------|--0-----0------------------|--0-----0-----------------*|coda
|---------------------------|---------------------------|---------------------------|

|-----------------2--|-----|------------------|-------------------|------------------|-------------------|
|-----------0--4-----|--2--|--2--2-----2---2--|--2-----2---2---2--|--2--2-----2---2--|--2-----2---2---2--|
|-----2--3-----------|-----|------------------|-------------------|------------------|-------------------|
|--3-----------------|-----|------------------|-------------------|------------------|-------------------|

|------------------|-------------------|---------------------------|------------------------|
|--2--2-----2---2--|--2-----2---2---2--|--0-----0------------------|--2--2-----2---2-----2--|
|------------------|-------------------|-----4-----4---0-----0-----|------------------------|
|------------------|-------------------|------------------4-----4--|------------------------|

|------------------|---------------------|------------------|---------------------|
|--2--2-----2---2--|--2-----2---2-----2--|--2--2-----2---2--|--2-----2---2-----2--|
|------------------|---------------------|------------------|---------------------|
|------------------|---------------------|------------------|---------------------|

|------------------|---------------------|---------------------------|-------------------------|
|--2--2-----2---2--|--2-----2---2-----2--|--0-----0------------------|--2---2-----2---2-----2--|
|------------------|---------------------|-----4-----4---0-----0-----|-------------------------|
|------------------|---------------------|------------------4-----4--|-------------------------|

|-------------------------|-------------------------|-------------------------|-------------------------|
|--2---2-----2---2-----2--|--2---2-----2---2-----2--|--2---2-----2---2-----2--|--2---2-----2---2-----2--|
|-------------------------|-------------------------|-------------------------|-------------------------|
|-------------------------|-------------------------|-------------------------|-------------------------|

|-------------------------|-------------------------|---------------------------|
|--2---2-----2---2-----2--|--2---2-----2---2-----2--|--0-----0------------------|
|-------------------------|-------------------------|-----4-----4---0-----0-----|
|-------------------------|-------------------------|------------------4-----4--|

|-------------------------|-------------------|---------------------|
|--2---2-----2---2-----2--|--2---2-----2---2--|--2-----2---2-----2--|
|-------------------------|-------------------|---------------------|
|-------------------------|-------------------|---------------------|

|-------------------------|-------------------|---------------------|
|--2---2-----2---2-----2--|--2---2-----2---2--|--2-----2---2-----2--|
|-------------------------|-------------------|---------------------|
|-------------------------|-------------------|---------------------|

|---------------------------|-------------------------|-------------------|---------------------|
|--0-----0------------------|--2---2-----2---2-----2--|--2---2-----2---2--|--2-----2---2-----2--|
|-----4-----4---0-----0-----|-------------------------|-------------------|---------------------|
|------------------4-----4--|-------------------------|-------------------|---------------------|

|-------------------------|-------------------|---------------------|-------------------|
|--2---2-----2---2-----2--|--2---2-----2---2--|--2-----2---2-----2--|--2---2-----2---2--|
|-------------------------|-------------------|---------------------|-------------------|
|-------------------------|-------------------|---------------------|-------------------|

|---------------------------|
|--0-----0------------------|
|-----4-----4---0-----0-----|
|------------------4-----4--|

|-------------------------|-------------------|---------------------|-------------------|
|--2---2-----2---2-----2--|--2---2-----2---2--|--2-----2---2-----2--|--2---2-----2---2--|
|-------------------------|-------------------|---------------------|-------------------|
|-------------------------|-------------------|---------------------|-------------------|

|-------------------------|-------------------|---------------------|---------------------------|
|--2---2-----2---2-----2--|--2---2-----2---2--|--2-----2---2-----2--|--0-----0------------------|
|-------------------------|-------------------|---------------------|-----4-----4---0-----0-----|
|-------------------------|-------------------|---------------------|------------------4-----4--|

|-------------------------|-------------------|---------------------|-------------------|
|--2---2-----2---2-----2--|--2---2-----2---2--|--2-----2---2-----2--|--2---2-----2---2--|
|-------------------------|-------------------|---------------------|-------------------|
|-------------------------|-------------------|---------------------|-------------------|

|-------------------------|-------------------|---------------------|---------------------------|
|--2---2-----2---2-----2--|--2---2-----2---2--|--2-----2---2-----2--|--0-----0------------------|
|-------------------------|-------------------|---------------------|-----4-----4---0-----0-----|
|-------------------------|-------------------|---------------------|------------------4-----4--|

|-------------------------|-------------------|---------------------|-------------------|
|--2---2-----2---2-----2--|--2---2-----2---2--|--2-----2---2-----2--|--2---2-----2---2--|
|-------------------------|-------------------|---------------------|-------------------|
|-------------------------|-------------------|---------------------|-------------------|

|-------------------------|-------------------|---------------------|---------------------------|
|--2---2-----2---2-----2--|--2---2-----2---2--|--2-----2---2-----2--|--0-----0------------------|
|-------------------------|-------------------|---------------------|-----4-----4---0-----0-----|
|-------------------------|-------------------|---------------------|------------------4-----4--|

|-----------------2--|-----|
|-----------0--4-----|--2--|
|-----2--3-----------|-----|
|--3-----------------|-----|

|-------------------------|-------------------|---------------------|-------------------|
|*-2---2-----2---2-----2--|--2---2-----2---2--|--2-----2---2-----2--|--2---2-----2---2--|
|*------------------------|-------------------|---------------------|-------------------|
|-------------------------|-------------------|---------------------|-------------------|

|-------------------------|-------------------|---------------------|---------------------------|
|--2---2-----2---2-----2--|--2---2-----2---2--|--2-----2---2-----2--|--0-----0------------------|
|-------------------------|-------------------|---------------------|-----4-----4---0-----0-----|
|-------------------------|-------------------|---------------------|------------------4-----4--|

|-------------------------|
|--2---2-----2---2-----2-*|
|------------------------*|
|-------------------------|NO ONE CAME

|------------|------------|------------|----------------|
|--2---2--2--|--2---2--2--|--2---2--2--|--2---2--2---2--|
|------------|------------|------------|----------------|
|------------|------------|------------|----------------|

                       cause I'm...                              take too long
                       because I...                              worn
                       I must...                                 they really...
|-------------------|---------------------|-------------------|---------------------|
|*-2---2-----2---2--|--2-----2---2-----2--|--2---2-----2---2--|--2-----2---2-----2--|
|*------------------|---------------------|-------------------|---------------------|
|-------------------|---------------------|-------------------|---------------------|

                                               that I...
                                               as they...
                                               could I...
|------------------|---------------------|--------------------------|
|-2---2-----2---2--|--2-----2---2-----2--|--0-----0-----------------|
|------------------|---------------------|-----4-----4--0-----0-----|
|------------------|---------------------|-----------------4-----4--|

                                               be like...
                                               paper...
                                               who's...
|-----------------------|-------------------|-------------------|
|--2---2-----2---2---2--|--2---2-----2---2--|--2-----2---2---2--|
|-----------------------|-------------------|-------------------|
|-----------------------|-------------------|-------------------|

|-----------------------|-------------------|-------------------|
|--2---2-----2---2---2--|--2---2-----2---2--|--2-----2---2---2--|
|-----------------------|-------------------|-------------------|
|-----------------------|-------------------|-------------------|

|--------------------------|------------------|---------------------|
|--0-----0-----------------|--2--2-----2---2--|--2-----2---2-----2--|
|-----4-----4--0-----0-----|------------------|---------------------|
|-----------------4-----4--|------------------|---------------------|

   big and...
   write...
   come and...
|-------------------|-----------------------|-------------------|
|-------------------|-----------------------|-------------------|
|--4---4-----4---4--|--4-----4---4---2---2--|--4---4-----4---4--|
|-------------------|-----------------------|-------------------|

                                               shiny...
                                               another one...
                                               fun and...
|-----------------------|-------------------|-----------------------|
|-----------------------|-------------------|----------------2------|
|-----------2-----2--2--|--4---4-----4---4--|--4-----4---4-------2--|
|--0--2--4-----4--------|-------------------|-----------------------|

                                                  no one came...
                                                  no one came...
                                                  no one came...
|-------------------|-----------------------|--2--2--------------------|
|-------------------|-----------------2--2--|-----------0--0--0--1--2--|
|--4---4-----4---4--|-----------2--4--------|--------4-----------------|
|-------------------|--0--2--4--------------|--------------------------|

                                                           really hot
                                                           is really..
                                                           who's he...
|-----2-----2------2--------|-----2-----2------2--------|-----2-----2------2--------|
|---------------0-----1--2--|---------------0-----1--2--|---------------0-----1--2-*|para o
|--0-----0------------------|--0-----0------------------|--0-----0-----------------*|coda
|---------------------------|---------------------------|---------------------------|

|-----------------2--|-----|------------------|-------------------|------------------|-------------------|
|-----------0--4-----|--2--|--2--2-----2---2--|--2-----2---2---2--|--2--2-----2---2--|--2-----2---2---2--|
|-----2--3-----------|-----|------------------|-------------------|------------------|-------------------|
|--3-----------------|-----|------------------|-------------------|------------------|-------------------|

|------------------|-------------------|---------------------------|------------------------|
|--2--2-----2---2--|--2-----2---2---2--|--0-----0------------------|--2--2-----2---2-----2--|
|------------------|-------------------|-----4-----4---0-----0-----|------------------------|
|------------------|-------------------|------------------4-----4--|------------------------|

|------------------|---------------------|------------------|---------------------|
|--2--2-----2---2--|--2-----2---2-----2--|--2--2-----2---2--|--2-----2---2-----2--|
|------------------|---------------------|------------------|---------------------|
|------------------|---------------------|------------------|---------------------|

|------------------|---------------------|---------------------------|-------------------------|
|--2--2-----2---2--|--2-----2---2-----2--|--0-----0------------------|--2---2-----2---2-----2--|
|------------------|---------------------|-----4-----4---0-----0-----|-------------------------|
|------------------|---------------------|------------------4-----4--|-------------------------|

|-------------------------|-------------------------|-------------------------|-------------------------|
|--2---2-----2---2-----2--|--2---2-----2---2-----2--|--2---2-----2---2-----2--|--2---2-----2---2-----2--|
|-------------------------|-------------------------|-------------------------|-------------------------|
|-------------------------|-------------------------|-------------------------|-------------------------|

|-------------------------|-------------------------|---------------------------|
|--2---2-----2---2-----2--|--2---2-----2---2-----2--|--0-----0------------------|
|-------------------------|-------------------------|-----4-----4---0-----0-----|
|-------------------------|-------------------------|------------------4-----4--|

|-------------------------|-------------------|---------------------|
|--2---2-----2---2-----2--|--2---2-----2---2--|--2-----2---2-----2--|
|-------------------------|-------------------|---------------------|
|-------------------------|-------------------|---------------------|

|-------------------------|-------------------|---------------------|
|--2---2-----2---2-----2--|--2---2-----2---2--|--2-----2---2-----2--|
|-------------------------|-------------------|---------------------|
|-------------------------|-------------------|---------------------|

|---------------------------|-------------------------|-------------------|---------------------|
|--0-----0------------------|--2---2-----2---2-----2--|--2---2-----2---2--|--2-----2---2-----2--|
|-----4-----4---0-----0-----|-------------------------|-------------------|---------------------|
|------------------4-----4--|-------------------------|-------------------|---------------------|

|-------------------------|-------------------|---------------------|-------------------|
|--2---2-----2---2-----2--|--2---2-----2---2--|--2-----2---2-----2--|--2---2-----2---2--|
|-------------------------|-------------------|---------------------|-------------------|
|-------------------------|-------------------|---------------------|-------------------|

|---------------------------|
|--0-----0------------------|
|-----4-----4---0-----0-----|
|------------------4-----4--|

|-------------------------|-------------------|---------------------|-------------------|
|--2---2-----2---2-----2--|--2---2-----2---2--|--2-----2---2-----2--|--2---2-----2---2--|
|-------------------------|-------------------|---------------------|-------------------|
|-------------------------|-------------------|---------------------|-------------------|

|-------------------------|-------------------|---------------------|---------------------------|
|--2---2-----2---2-----2--|--2---2-----2---2--|--2-----2---2-----2--|--0-----0------------------|
|-------------------------|-------------------|---------------------|-----4-----4---0-----0-----|
|-------------------------|-------------------|---------------------|------------------4-----4--|

|-------------------------|-------------------|---------------------|-------------------|
|--2---2-----2---2-----2--|--2---2-----2---2--|--2-----2---2-----2--|--2---2-----2---2--|
|-------------------------|-------------------|---------------------|-------------------|
|-------------------------|-------------------|---------------------|-------------------|

|-------------------------|-------------------|---------------------|---------------------------|
|--2---2-----2---2-----2--|--2---2-----2---2--|--2-----2---2-----2--|--0-----0------------------|
|-------------------------|-------------------|---------------------|-----4-----4---0-----0-----|
|-------------------------|-------------------|---------------------|------------------4-----4--|

|-------------------------|-------------------|---------------------|-------------------|
|--2---2-----2---2-----2--|--2---2-----2---2--|--2-----2---2-----2--|--2---2-----2---2--|
|-------------------------|-------------------|---------------------|-------------------|
|-------------------------|-------------------|---------------------|-------------------|

|-------------------------|-------------------|---------------------|---------------------------|
|--2---2-----2---2-----2--|--2---2-----2---2--|--2-----2---2-----2--|--0-----0------------------|
|-------------------------|-------------------|---------------------|-----4-----4---0-----0-----|
|-------------------------|-------------------|---------------------|------------------4-----4--|

|-----------------2--|-----|
|-----------0--4-----|--2--|
|-----2--3-----------|-----|
|--3-----------------|-----|

|-------------------------|-------------------|---------------------|-------------------|
|*-2---2-----2---2-----2--|--2---2-----2---2--|--2-----2---2-----2--|--2---2-----2---2--|
|*------------------------|-------------------|---------------------|-------------------|
|-------------------------|-------------------|---------------------|-------------------|

|-------------------------|-------------------|---------------------|---------------------------|
|--2---2-----2---2-----2--|--2---2-----2---2--|--2-----2---2-----2--|--0-----0------------------|
|-------------------------|-------------------|---------------------|-----4-----4---0-----0-----|
|-------------------------|-------------------|---------------------|------------------4-----4--|

|-------------------------|
|--2---2-----2---2-----2-*|
|------------------------*|
|-------------------------|

HERRAMIENTAS ACORDESWEB:


LETRA DE LA CANCIÓN:

Ver la letra sola (sin acordes)

DESCARGAR PDF / IMPRIMIR CANCIÓN



ACORDES PARA GUITARRA

PIANO UKELELE


TOP 20: Las más tocadas de Deep Purple


Toca una Canción al Azar de Deep Purple

Acordes

Cerrar

10.39


106