Baby, Fala Pra Mim

Desejo de Menina

Acordes

Subida por Nazgul


Más Versiones
Ver. 2 Ver. 3 Ver. 4 Ver. 5 Ver. 6

Cambiar Cifrado
Americano Latino

Cambiar Tonalidad
-1 +1

Partir Pantalla Imprimir FAQ

+A
-A
Mudar para Português

Ver solo la LETRA
(capo 1ª casa)

(intro) Bb F Gm Eb

(ordem do dedilhado)
A E F#m D9
|----------------|----------------|----------------|----------------|
|------------3---|------------0---|------------3---|------------4---|
|------3--------3|------2--------2|------3--------3|------3--------3|
|---3-----3------|---3-----3------|---5-----5------|---5-----5------|
|1---------------|3---------------|5---------------|6---------------|
|----------------|----------------|----------------|----------------|

(caso use o capotraste na 1ª casa, o último dedilhado fica assim)
|----------------|
|------------4---|
|-----3---------3|
|--1-----1-------|
|1---------------|
|----------------|

(riff 1)
E|---------------|
B|--11--10--8--6-|
G|---------------|
D|---------------|
A|---------------|
E|---------------|

( A E F#m D9 )

A E
Será que tudo que por nossa vida passa
F#m D9
tem motivos? E que só o coração
A E
É quem conhece o verdadeiro amor?
F#m D9
E as palavras tem poder ? Então

(refrão)
A
Baby falá pra mim
E F#m D9
Que... gosta de mim
A
Baby fala pra mim
E F#m D9
Que... o tempo não mudou
A
seu jeito de gostar
E F#m D9
E que ainda gosta de mim

(a natureza muda e deixa ser composta (1-e-e-2-e-e-1-e-e-2-e-e)
e passa a ser simples (1-e-2-e-1-e-2-e) ou (1-e-e-e-2-e-e-e) )
(outra mudança significativa é que na parte composta,
é tocado um tempo por acorde; na parte simples, é dois tempos por acorde)

( A )
A E
Será que tudo que por nossa vida passa
F#m D9
tem motivos? E que só o coração
A E
É quem conhece o verdadeiro amor?
F#m D9
E as palavras tem poder ? Então

(refrão)
A
Baby falá pra mim
E F#m D9
Que... gosta de mim
A
Baby fala pra mim
E F#m D9
Que... o tempo não mudou
A
seu jeito de gostar
E F#m D9
E que ainda gosta de mim

( A E F#m D9 )

A E
Eu sei que um gesto vale mais mil palavras
F#m D9
Mas é sempre bom a gente ouvir
A E
Um "Eu te amo"... Um "Adoro você"
F#m D9
Por isso que ro ouvir você dizer

(refrão)
A
Baby falá pra mim
E F#m D9
Que... gosta de mim
A
Baby fala pra mim
E F#m D9
Que... o tempo não mudou
A
seu jeito de gostar
E F#m D9
hum-um-um-um...
A E F#m D9
hum...

(refrão)

(riff - durante a música)
E|--------------------
B|--11--10--8--6------
G|--------------------
D|--------------------
A|--------------------
E|--------------------

ACORDES PARA GUITARRA

PIANO UKELELE
Bb
F
Gm
Eb
A
E
F#m
D9


Las más tocadas de Desejo de Menina

Bb
F
Gm
Eb
A
E
F#m
D9