Chamando Você

Desejo de Menina

Acordes

Subida por juancamaney


Más Versiones
Ver. 2 Ver. 3 Ver. 4 Ver. 5 Ver. 6

Cambiar Cifrado
Americano Latino

Cambiar Tonalidad
-1 +1

Partir Pantalla Imprimir FAQ

+A
-A
Mudar para Português

Ver solo la LETRA
            Fm                Ab 
Eu sei que jamais, vou te esquecer
Eb Db
Não quero o fim, só penso em te amar
Fm Ab
E no vazio, do meu coração
Eb Db Bbm
Só ouço uma voz, chamando você, chamando você

Fm Ab
Nao vou desistir, você é pra mim
Eb Db Bbm C
Passado e presente, é pra sempre, é pra sempre você

(Refrão):
Db Bbm
É desejo é paixão que não vai ter fim
Db Bbm C Fm
Você é como eu sonhei pra mim

Fm Ab
Eu não quero o fim, não vou desistir
Eb Db
A voz no vazio, só chama você
Fm Ab
Jamais vou te esquecer meu amor
Eb Db Bbm C
Amo você é pra sempre é pra sempre você

(Refrão):
Db Bbm
É desejo é paixão que não vai ter fim
Db Bbm C
Você é como eu sonhei pra mim
Db Bbm
É desejo é paixão que vem do coração
Db Bbm C
Eu te amo e sei que vou fazer você me amar

e|---------------------------8----------------------|
B|---------------------6-8-9---11-11----16-16-9-----|
G|--------------------------------------------------|
D|-10-8----8--6-6-----------------------------------|
A|------11------------------------------------------|
E|--------------------------------------------------|

e|------------------------------11------------------|
B|-------8-9-8--------------------------------------|
G|----10-------------8/10--8-7-8--------------------|
D|--10---------10-----------------------------------|
A|--------------------------------------------------|
E|--------------------------------------------------|

e|--11-9-8-9-8----8----------------------------|
B|-------------11---11-9-11-9----9-------------|
G|----------------------------12---12-10-------|
D|---------------------------------------------|
A|---------------------------------------------|
E|---------------------------------------------|

Db Bbm C
É pra sempre é pra sempre você

(Refrão):
Db Bbm
É desejo é paixão que não vai ter fim
Db Bbm C
Você é como eu sonhei pra mim
Db Bbm
É desejo é paixão que vem do coração
Db Bbm C
Eu te amo e sei que vou fazer você me amar

Db Bbm
É desejo é paixão que não vai ter fim
Db Bbm C
Você é como eu sonhei pra mim
Db Bbm
É desejo é paixão que vem do coração
Db Bbm C
Eu te amo e sei que vou fazer você me amar



ACORDES PARA GUITARRA

PIANO UKELELE
Fm
Ab
Eb
Db
Bbm
C


Las más tocadas de Desejo de Menina

Fm
Ab
Eb
Db
Bbm
C