Estórias

Desejo de Menina

Acordes

Subida por Landerdf


Más Versiones
Ver. 2 Ver. 3 Ver. 4 Ver. 5 Ver. 6

Cambiar Cifrado
Americano Latino

Cambiar Tonalidad
-1 +1

Partir Pantalla Imprimir FAQ

+A
-A
Mudar para Português

Ver solo la LETRA
Introd.: A ( D  E  D  C#m  Bm  E  A ) 2x 

E|--------------------------7-7------5-5-------4-4---------------- =
B|---------------------7--------5---------3---------2------------- =
G|---------6-6-7-7-9-9---9--------7---------6---------4~--4-2----- =- 2x
D|-7-7-9-9----------------------------------------------------4-7- =-
A|---------------------------------------------------------------- =
E|---------------------------------------------------------------- =

*Obs:
- Essa intro. é repetida varias vezes na musica.
- Acordes sublinhados são executados rápido.

E/G# F#m F#m/E
Foram versos de amor foram cartas foram parques de nós
D F A D E A
Foram marcas foi o coração quem pediu pra dizer adeus.
E/G# F#m F#m/E
Foram sonhos de amor foram noites eu no sonho a pensar que você
D F A
não vem nem me encontrar, nem me ouvir, nem dizer meu bem.

Refrão

A E/G# F#m C#m D
Foram tantos sonhos pra viver, que me custa entender
A A E/G# F#m
que hoje é nada.
C#m D
Tudo aquilo que eu consigo ser não consegue esquecer
A B/A E A ( D E D C#m Bm E A ) 2x
a namorada que me faz estremecer.

E/G# F#m F#m/E
Foram juras e foram carinhos, foram beijos e brigas sozinhos
D F A D E A
eu sei que não se pode evitar a palavra amor.
E/G# F#m F#m/E
Sempre muito, sempre um pouco assim são as historias,
D F A
são loucos caminhos estradas em formas de coração ... ( Refrão )


Solo:A D E D F#m
E|--------------------------7-7------5-5~---5-7-7h9--
B|---------------------7--------5--------------------
G|---------6-6-7-7-9-9---9--------7------------------
D|-7-7-9-9-------------------------------------------
A|---------------------------------------------------
E|---------------------------------------------------
A D E D F#m C#m D
Foram tantos sonhos pra viver, que me custa entender
A A E/G# F#m
que hoje é nada.
C#m D
Tudo aquilo que eu consigo ser não consegue esquecer
A B/A E A ( D E D C#m Bm E A ) 4x
a namorada que me faz estremecer.

NUEVO FORO DE MÚSICA

¿Tienes alguna duda, consulta, pregunta, consejo o algo para compartir sobre esta canción?

¡Puedes abrir un hilo en el FORO para que la comunidad te ayude! Hacer una pregunta

ACORDES PARA GUITARRA

PIANO UKELELE
E/G#
F#m
F#m/E
D
F
A
E
C#m
B/A
Bm


Las más tocadas de Desejo de Menina

E/G#
F#m
F#m/E
D
F
A
E
C#m
B/A
Bm