Estrelinha (part. Marília Mendonça)

Di Paullo e Paulino

Acordes

Subida por Chava20


Más Versiones
Ver. 2 Ver. 3 Ver. 4 Ver. 5 Ver. 6

Cambiar Cifrado
Americano Latino

Cambiar Tonalidad
-1 +1

Partir Pantalla Imprimir FAQ

+A
-A
Mudar para Português

Ver solo la LETRA
[Intro] E  A  G#m  F#m  A9  E

[Solo]

E|--4-5-7----4-2-0-4-2-0-4-2-0-----------0----------|
B|--5-7-9---------------------4-2-0--0p2------------|
G|---------------------------------2----------------|
D|--------------------------------------------------|
A|--------------------------------------------------|
E|--------------------------------------------------|

E|---------------------5----4---2---4---------------|
B|-------------------5----5---5---5-----------------|
G|--6---4---2---4-----------------------------------|
D|-7--6---4---6-------------------------------------|
A|--------------------------------------------------|
E|--------------------------------------------------|

F#m7
Enxugue esse rosto
A9
E venha aqui fora como de costume
E
Vamos conversar
Pra te alegrar tem até vagalume
E A G#m F#m
Tem dia que vai piorar
A9
Saudade vai apertar
E
Até que "cê" tá indo bem
B7
Faz falta aqui pra mim também
F#m7
Lembra de quando
A9
Eu ficava acordado até tarde esperando
E
Só pra ganhar
Um beijo de boa noite antes de dormir
F#m7
Daqui não é diferente
A9
Te beijo mas você não sente

E
Quando bater a saudade
B7
Olhe aqui pra cima
F#m7
Sabe lá no céu aquela estrelinha
A9 A G#m F#m
Que eu muitas vezes mostrei pra você
E
Hoje é minha morada
B7
A minha casinha
F#m7
Mesmo que de longe tão pequenininha
B7 E
Ela brilha mais toda vez que te vê

[Solo] F# B A#m G#m B9 F#

E|-6-4--6-4--6-4-----------2------------------------|
B|----7----7----7-6-4---2p4-------------------------|
G|-------------------6-4----------------------------|
D|--------------------------------------------------|
A|--------------------------------------------------|
E|--------------------------------------------------|

E|--------------------7---6-------------------------|
B|------------------7---7---7-9--7-7----------------|
G|---8---6---4---6----------------------------------|
D|-9---8---6---8------------------------------------|
A|--------------------------------------------------|
E|--------------------------------------------------|

G#m
Enxugue esse rosto
B9
Venha aqui fora como de costume
F#
E vamos conversar
Pra te alegrar tem até vagalume
F# B A#m G#m
Tem dia que vai piorar
B9
Saudade vai apertar
F#
Até que "cê" tá indo bem
C#7
Faz falta aqui pra mim também
G#m
Lembra de quando
B9
Eu ficava acordado até tarde esperando
F#
Só pra ganhar
Um beijo de boa noite antes de dormir
G#m
Daqui não é diferente
B9 B A#m G#m
Te beijo mas você não sente

F#
Quando bater a saudade
C#7
Olhe aqui pra cima
G#m
Sabe lá no céu aquela estrelinha
B9 B A#m G#m
Que eu muitas vezes mostrei pra você
F#
Hoje é minha morada
C#7
A minha casinha
G#m
Mesmo que de longe tão pequenininha
C#7 F#
Ela brilha mais toda vez que te vê

F#
Enxugue esse rosto

ACORDES PARA GUITARRA

PIANO UKELELE
E
A
G#m
F#m
A9
F#m7
B7
F#
B
A#m
B9
C#7


Las más tocadas de Di Paullo e Paulino

E
A
G#m
F#m
A9
F#m7
B7
F#
B
A#m
B9
C#7