Villancicos del Horror
Divididos
Acordes

Subida por Aguirre



Otras Versiones

Cambiar Cifrado
Americano Latino

Cambiar Tonalidad
-1 +1

Partir Pantalla Imprimir FAQ

+A
-A
LETRA CON ACORDES
(No se toca nada)
Feliz navidad
Exploto el pecebre
Triangulo santo
Quema niño
Petardo arrepentido
Se nego a explotar
Linyera en la axila de 24 al 6
Napia como aljibe de 1803

Gm7/Add11 (3 veces) G6/Add9 (2 veces)

(No se toca nada)
Año nuevo
El hombre festeja
Y el perro escapo
Reyes vagos
No entrega a domicilio
Porque no hay remis
Copetin de quejas
Traido e´los pelos

E-G-A-E (4 veces)

(silencio)

1--3--5---10--3--5----/---3--5---10---8-8----3--5---10--3--5---0--0--0--0
2--0--0----0--0--0--------0--0----0---0-0----0--0----0--0--0---6--5--4--4
3------------------------------------------------------------------------
4------------------------------------------------------------------------
5------------------------------------------------------------------------
6------------------------------------------------------------------------

1--3--5---10--3--5----/---3--5---10---8-8----3--5---10--3--5---0--0--0--0
2--0--0----0--0--0--------0--0----0---0-0----0--0----0--0--0---6--5--4--4
3------------------------------------------------------------------------
4------------------------------------------------------------------------
5------------------------------------------------------------------------
6------------------------------------------------------------------------

E-G-A-E

(Todo sobre E)
Argentina mutante travesti
Llego el carnaval
Argentina hoy esta de novia
Se caza por amor

A G E
La juventud trabada
A G E
Politica sin sopapa
A G E
Argentina esta de novia
A G E E-G-A-E
Se caza por amor


Acordes:


G G6/Add9 A Gm7/Add11 E
1---3------0-------5--------3---------0--
2---3------0-------5--------3---------0--
3---4------0-------6--------3---------1--
4---5------0-------7--------3---------2--
5---5------0-------7--------3---------2--
6---3------0-------5--------3---------0--

*este tema lo saque con una criolla y suena igual, menos en la tercer estrefa
que usa un efecto, ni idea cual. bueno espero que la disfruten, y por favor
alguien que saque, Go negro go. uoh papapa de las ´desconocidas´ de los piojos,
ponganse las pilas. grazzie

cualquier duda o comentario, [email protected]


ACORDES PARA GUITARRA

PIANO UKELELE
E
G
A



COMENTARIOS

Aún no hay comentarios,

¡escribe el primero!

Escribe un comentario o pregunta sobre esta canción


TOP 20: Las más tocadas de Divididos

Ver más

Toca una Canción al Azar de Divididos
E
G
A

Nuestro servidor se demoró 0.02 segundos en generar esta página. Eso fue realmente muy rápido!