Por Que Amor?

Dorgival Dantas

Acordes

Subida por Domingo


Más Versiones
Ver. 2 Ver. 3 Ver. 4 Ver. 5 Ver. 6

Cambiar Cifrado
Americano Latino

Cambiar Tonalidad
-1 +1

Partir Pantalla Imprimir FAQ

+A
-A


Ver solo la LETRA
[Intro] C  G  Am  F 
C G F

C G
Por que amor você insiste em evitar
Bb A7
Não acredita que ainda sou
Dm7 Em7
Apaixonado por você
Fm
Não faz nenhum sentido
F Em Am7 G
Você fugir de mim assim
D
Se tudo que eu mais preciso
G
É de você perto de mim
C
Olha amor
G
Você poderia tentar
Bb A7
Me dar uma chance, por favor
Dm7 Em7
Não vou fazer você chorar
Fm
Só vou te dar carinho
C G Am G
Só quero te fazer feliz
D
Ficar pertinho de você
G
É tudo que eu sempre quis

F
Por que te amo tanto
G Em
Me sinto tão sem graça sem você
Am D
Você passou a ser na minha vida
G
A única razão para viver
F
Não faz assim comigo
G Em
Esquece tudo, volte e vem de vez
Am D
Preciso de você na minha vida
G
Pra gente se amar mais uma vez
F
Por que te amo tanto
G Em
Me sinto tão sem graça sem você
Am D
Você passou a ser na minha vida
G
A única razão para viver
F
Não faz assim comigo
G Em
Esquece tudo, volte e vem de vez
Am D
Preciso de você na minha vida
C
Pra gente se amar mais uma vez

[Solo] G Am F
C G F

E|-------------------------------------------|
B|------6/8~~-8b10r8-------------------------|
G|-------------------5/7~~~~-----------------|
D|--/10--------------------------------------|
A|-------------------------------------------|
E|-------------------------------------------|

E|-------------------------------------------|
B|------10-12| 12b13r12b13-------------------|
G|--5/7--------------------------------------|
D|-------------------------------------------|
A|-------------------------------------------|
E|-------------------------------------------|

E|--------------------------------------------|
B|--12b13-13-13-13-3-13r12-10-----------------|
G|----------------------------12-12b14r12b14--|
D|--------------------------------------------|
A|--------------------------------------------|
E|--------------------------------------------|

E|--12-13-15-13-12--|--12-13-12---------------|
B|------------------|-----------15------------|
G|------------------|-------------------------|
D|------------------|-------------------------|
A|------------------|-------------------------|
E|------------------|-------------------------|

E|--------------12-12-12-12-12----------------|
B|-----12-13-15---------------15--13p12h13~~--|
G|--14----------------------------------------|
D|--------------------------------------------|
A|--------------------------------------------|
E|--------------------------------------------|

C
Olha amor
G
Você poderia tentar
Bb A7
Me dar uma chance, por favor
Dm7 Em7
Não vou fazer você chorar
Fm
Eu vou te dar carinho
C G Am G
Só quero te fazer feliz
D
Ficar pertinho de você
G
É tudo que eu sempre quis

F
Por que te amo tanto
G Em
Me sinto tão sem graça sem você
Am D
Você passou a ser na minha vida
G
A única razão para viver
F
Não faz assim comigo
G Em
Esquece tudo, volte e vem de vez
Am D
Preciso de você na minha vida
G
Pra gente se amar mais uma vez
F
Por que te amo tanto
G Em
Me sinto tão sem graça sem você
Am D
Você passou a ser na minha vida
G
A única razão para viver
F
Não faz assim comigo
G Em
Esquece tudo, volte e vem de vez
Am D
Preciso de você na minha vida
C F Fm C
Pra gente se amar mais uma vez

NUEVO FORO DE MÚSICA

¿Tienes alguna duda, consulta, pregunta, consejo o algo para compartir sobre esta canción?

¡Puedes abrir un hilo en el FORO para que la comunidad te ayude! Hacer una pregunta

ACORDES PARA GUITARRA

PIANO UKELELE
C
G
Am
F
Bb
A7
Dm7
Em7
Fm
Em
Am7
D


Las más tocadas de Dorgival Dantas

C
G
Am
F
Bb
A7
Dm7
Em7
Fm
Em
Am7
D