Valeu

Dorgival Dantas

Acordes

Subida por Luispicazo


Más Versiones
Ver. 2 Ver. 3 Ver. 4 Ver. 5 Ver. 6

Cambiar Cifrado
Americano Latino

Cambiar Tonalidad
-1 +1

Partir Pantalla Imprimir FAQ

+A
-A


Ver solo la LETRA
[Intro] A  C#m  Bm  D 
A C#m Bm D

E|--------------------------------------------------|
B|--5----------5------------------------------------|
G|---6-----------6-----------------7-6-4-------6----|
D|-----7-6~~-------6-4---4---4-7---------7-4-7---7--|
A|-------------------------7------------------------|
E|--------------------------------------------------|

E|--------------------------------------------------|
B|--5----------5------------------------------------|
G|---6-----------6----------------------------------|
D|-----7-6~~-------6-4---4-7-4-6-6-4-4--------------|
A|-------------------------------------7------------|
E|--------------------------------------------------|

E|--------------------------------------------------|
B|--5----------5------------------------------------|
G|---6-----------6-----------------7-6-4-------6----|
D|-----7-6~~-------6-4---4---4-7---------7-4-7---7--|
A|-------------------------7------------------------|
E|--------------------------------------------------|

E|--------------------------------------------------|
B|--5----------5------------------------------------|
G|---6-----------6---------------6/7~~--------------|
D|-----7-6~~-------6-4---4---4-7--------------------|
A|-------------------------7------------------------|
E|--------------------------------------------------|

A C#
Eu não sei como, mas vou ter que dar um jeito
F#m F#7
De te esquecer, por que
Bm Bm7/A
Perdi as contas quantas vezes te pedi
E D E
Pra não brincar comigo?
A C#
Infelizmente você não me escutou
F#m Dm
Não deu valor ao sentimento
A E
Eu posso até ficar longe de ti
Bm D E
Mas perto eu não aguento

A C#
Às vezes a gente tem que ter coragem
F#m
Quando chega o momento
F#7
Isso é certo
Bm Bm7/A
Sair de um grande amor não é legal
E D E
Pra qualquer um que ama e queira estar perto
A C#
Eu abri mão de tanta coisa por você
F#m Dm
Só meu querer, não deu
A E
Mas mesmo assim se alguém me perguntar
Bm D
Vou dizer que valeu

E F#m
Valeu
C#m
Cada momento que eu pude te abraçar
D
Que a gente fez amor, eu sempre vou lembrar
Dm A
Está guardado tudo no meu pensamento
E F#m
Valeu
C#m
Os beijos que me deu eu achei tudo massa
D
Pra mim só não valeu quando me fez trapaça
E A
E resolveu brincar com o meu sentimento

Repete o solo da introdução

NUEVO FORO DE MÚSICA

¿Tienes alguna duda, consulta, pregunta, consejo o algo para compartir sobre esta canción?

¡Puedes abrir un hilo en el FORO para que la comunidad te ayude! Hacer una pregunta

ACORDES PARA GUITARRA

PIANO UKELELE
A
C#m
Bm
D
C#
F#m
F#7
Bm7/A
E
Dm


Las más tocadas de Dorgival Dantas

A
C#m
Bm
D
C#
F#m
F#7
Bm7/A
E
Dm