Pa no esconderme
Duo Coplanacu
Acordes

Subida por Zeknew
Álbum: 1991 ( 1991)


Más Versiones
Ver. 2 Ver. 3

HERRAMIENTAS

Cambiar Cifrado
Americano Latino

Cambiar Tonalidad
-1 +1

Partir Pantalla Imprimir FAQ

+A
-A

LETRA CON ACORDES

¿Tu Guitarra esta Afinada? PRUEBA NUESTRO NUEVO AFINADOR

La tonalidad siguiente es la que usa el Duo en su CD
pero qcomo es muy cansador tanta cejilla a continuacion
presento la misma tonalidad trasportada para que sea mas
descansada.

Introduccion

B B F#7 F#7
1|-----------------------------------|---------|
2|---4---4---4---4----2^------2^-----|---0-2-4-|
3|-----4-------4--------3-3-----3-3--|-3---3-4-|
4|-----------------------------------|---------|
5|-2-------2--------4-------4--------|-4-------|
6|-----------------------------------|---------|


B -
Yo canto este escondido |
F#7 B | Bis
pa´ no esconderme |
-

B -
pa´ no esconder el grito |
F#7 B | Bis
que se me viene. |
-

B E
Golpea el bombo
F#7 B
como mi pecho
D#7 E
golpea la esperanza
F#7 B
y levanta vuelo.


|B F#7 B| % |


B E
Yo canto coplas
F#7 B
que andan rondando
D#7 E
cantando el escondido
F#7 B
las voy juntando.


|B F#7 B| % |


B E
Yo canto lo que voy viviendo
F#7 B
viendo y escuchando
D#7 E
andoi´ con la cara al viento
F#7 B
voy buscando.


B B F#7 F#7
1|-----------------------------------|---------|
2|---4---4---4---4----2^------2^-----|---0-2-4-|
3|-----4-------4--------3-3-----3-3--|-3---3-4-|
4|-----------------------------------|---------|
5|-2-------2--------4-------4--------|-4-------|
6|-----------------------------------|---------|


|B F#7 B| % |
|B F#7 B| % |


B -
Mi canto es un quebracho |
F#7 B | Bis
raíz bien honda, |
-


B -
ramas que van pal´ cielo |
F#7 B | Bis
libres de sombra. |
-

B E
Pa´ no esconder el grito
F#7 B
que se me viene
D#7 E
no soy tronco ´ quebracho
F#7 B
soy brote verde.

|B F#7 B| % |

B E
Verde brotando
F#7 B
lejos del monte
D#7 E
abriendole picadas
F#7 B
al horizonte.


|B F#7 B| % |


B E
Yo canto lo que voy viviendo
F#7 B
viendo y escuchando
D#7 E
andoi´ con la cara al viento
F#7 B
voy buscando.

-----------------------------------------------------------------
Segunda Version Igual tonalidad
-----------------------------------------------------------------

usar trasporte en Cejilla 2



Introduccion

A A E7 E7 A
1|---------------------------------|------|---|
2|---2---2---2---2-----^0-----^0---|------|-3-|
3|-----2-------2------1---1--1---1-|-1-2-4|-3-|
4|---------------------------------|------|-3-|
5|-0-------0--------2------2-------|------|-0-|
6|---------------------------------|-0----|-0-|


A -
Yo canto este escondido |
E7 A | Bis
pa´ no esconderme |
-

A -
pa´ no esconder el grito |
E7 A | Bis
que se me viene. |
-

A D
Golpea el bombo
E7 A
como mi pecho
C#7 D
golpea la esperanza
E7 A
y levanta vuelo.


|A E7 A| % |


A D
Yo canto coplas
E7 A
que andan rondando
C#7 D
cantando el escondido
E7 A
las voy juntando.


|A E7 A| % |


A D
Yo canto lo que voy viviendo
E7 A
viendo y escuchando
C#7 D
andoi´ con la cara al viento
E7 A
voy buscando.


A A E7 E7 A
1|---------------------------------|------|---|
2|---2---2---2---2-----^0-----^0---|------|-3-|
3|-----2-------2------1---1--1---1-|-1-2-4|-3-|
4|---------------------------------|------|-3-|
5|-0-------0--------2------2-------|------|-0-|
6|---------------------------------|-0----|-0-|



|A E7 A| % |
|A E7 A| % |


A -
Mi canto es un quebracho |
E7 A | Bis
raíz bien honda, |
-


A -
ramas que van pal´ cielo |
E7 A | Bis
libres de sombra. |
-

A D
Pa´ no esconder el grito
E7 A
que se me viene
C#7 D
no soy tronco ´ quebracho
E7 A
soy brote verde.

|A E7 A| % |

A D
Verde brotando
E7 A
lejos del monte
C#7 D
abriendole picadas
E7 A
al horizonte.


|A E7 A| % |


A D
Yo canto lo que voy viviendo
E7 A
viendo y escuchando
C#7 D
andoi´ con la cara al viento
E7 A
voy buscando.

////////////////// ¿Te Animas? Sube una canción a este sitio. //////////////////

ACORDES PARA GUITARRA

PIANO UKELELE
B
F#7
E
D#7
A
E7
D
C#7


COMENTARIOS

Aún no hay comentarios,

¡escribe el primero!

Escribe una pregunta, duda o comentario sobre esta canción, te responderemos a la brevedad.

Las canciones más tocadas de Duo Coplanacu

Toca una Canción al Azar de Duo Coplanacu
B
F#7
E
D#7
A
E7
D
C#7

16.44


Nuestro servidor se demoró 0.11 segundos en generar esta página. Eso fue realmente muy rápido!