Soy de los pueblos

Duo Coplanacu

Acordes

Subida por Jc77


Más Versiones
Ver. 2

Cambiar Cifrado
Americano Latino

Cambiar Tonalidad
-1 +1

Partir Pantalla Imprimir FAQ

+A
-A


Ver solo la LETRA
DoM - Si7 - Mim
|-------------------------------||
|-4/5--5--5--4--7--5------------||
|-------------------------------|| x3
|-4/5--5--5--4--7--5------------||
|-------------------------------||
|-------------------------------||

LAm
Grito que despierta el sol
DO SI7
quemandolo al monte
LAm MIm
Encuentro de caminos
SI7 MIm
soledad para el hombre


|-------------------------------||
|-11/12--12--12--11--14--12-----||
|-------------------------------|| x3
|-11/12--12--12--11--14--12-----||
|-------------------------------||
|-------------------------------||


Verde pinta el suelo
quebrachales de fuego
alma de tunales
se dibujan al cielo

Tardes caprichosas
de calores ardientes
se oye en la represa
divertirse la gente

Estribillo

Canto sueño libre soy
como aquellos pueblos
que se hunde en raices
reviviendo sus sueños


Vienen de cada rincon
trayendo alegrias
penas y amarguras
que acumulan los dias

Me gusta abrazar guitarras
dar melodias
para cuando no este ya
mi alama dentro he la vida

Suelo amar como el sorzal
me pierdo en el vuelo
se encontrarme en soledad
y no tener mierdo

Estribillo


A cantar roli y chona....


NUEVO FORO DE MÚSICA

¿Tienes alguna duda, consulta, pregunta, consejo o algo para compartir sobre esta canción?

¡Puedes abrir un hilo en el FORO para que la comunidad te ayude! Hacer una pregunta

ACORDES PARA GUITARRA

PIANO UKELELE
Am
C
B7
Em


Las más tocadas de Duo Coplanacu

Am
C
B7
Em