Tonada para Remedios
Duo Coplanacu
Acordes

Subida por Camrose
Álbum: Paisaje ( 1997)


Más Versiones
Ver. 2

HERRAMIENTAS

Cambiar Cifrado
Americano Latino

Cambiar Tonalidad
-1 +1

Partir Pantalla Imprimir FAQ

Ver solo la LETRA

+A
-A

LETRA CON ACORDES

¿Tu Guitarra esta Afinada? PRUEBA NUESTRO NUEVO AFINADOR

Parte I
% -
1|------------8-|---|---------------------------| |
2|-6^8-888^10---|---|--6^8-888------------------| |
3|--------------|---|----------9-7----7-7^9----7| Violin o 1ª guitarra |
4|--------------|---|--------------10-------10--| |
5|--------------|---|---------------------------| |
6|--------------|---|---------------------------| | I
|
% | N
1|------------8-|---|---------------------------| |
2|-6^8-888^10---|---|--6^8-888------------------| | T
3|--------------|---|----------9-7--------------| Violin o 1ª guitarra |
4|--------------|---|--------------10--10-10----| | R
5|--------------|---|---------------------------| |
6|--------------|---|---------------------------| | O
|
Parte II | D
|
|C F | % | C G C C C | 2ª guitarra | U
|
% | C
1|------------8-|---|---------------------------| |
2|-6^8-888^10---|---|--6^8-888------------------| | C
3|--------------|---|----------9-7----7-7^9----7| Violin o 1ª guitarra |
4|--------------|---|--------------10-------10--| | I
5|--------------|---|---------------------------| |
6|--------------|---|---------------------------| | O
|
| N
|C F | % | C G C C C | 2ª guitarra |
|
% |
1|------------8-|---|---------------------------| |
2|-6^8-888^10---|---|--6^8-888------------------| |
3|--------------|---|----------9-7--------------| Violin o 1ª guitarra |
4|--------------|---|--------------10--10-10----| |
5|--------------|---|---------------------------| |
6|--------------|---|---------------------------| -



C
Desde la banda he venido
G C
pisando sobre las flores.
C
Desde la banda he venido
G C
pisando sobre las flores.


C
Como soy muchacho tierno
G C
vengo rendido de amores.
C
Como soy muchacho tierno
G C
vengo rendido de amores.


C G C
Por esa banda, por ese rosal,
C G C
me has hecho lo que has querido,
C G C
pero me lo has de pagar
C G C G C
subite a las ancas, Marcelina.

4|---0-2-------
5|-3-----------

F
Churo vamos a galopar,
C
copleando por el camino,
C G C
cruzaremos el Toroyoc,
C G C
banda a banda había crecido.


F
Marcelina dame alcohol,
C
cigarrito pa´fumar,
C G C
la fiesta va a comenzar,
C G C
machadito´i terminar.

G G G G G G G

Parte II


C G C
Por esa banda, por ese rosal,
C G C
me has hecho lo que has querido,
C G C
pero me lo has de pagar
C G C G C
subite a las ancas, Marcelina.


4|---0-2-------
5|-3-----------

F
Churo vamos a galopar,
C
copleando por el camino,
C G C
cruzaremos el Toroyoc,
C G C
banda a banda había crecido.



F
Marcelina dame alcohol,
C
cigarrito pa´fumar,
C G C
la fiesta va a comenzar,
C G C
machadito´i terminar.


G G G G G G G

Parte II

Parte II

////////////////// ¿Te Animas? Sube una canción a este sitio. //////////////////

ACORDES PARA GUITARRA

PIANO UKELELE
C
G
F


COMENTARIOS

Aún no hay comentarios,

¡escribe el primero!

Escribe una pregunta, duda o comentario sobre esta canción, te responderemos a la brevedad.

Las canciones más tocadas de Duo Coplanacu

Toca una Canción al Azar de Duo Coplanacu
C
G
F

11.59


Nuestro servidor se demoró 0.08 segundos en generar esta página. Eso fue realmente muy rápido!