Papapa (Acordes)

Fiskales Ad Hok

Subida por Juan1402


Imprimir FAQ
+A
-A

Texto

Desplazamiento

Transportador

Color de Fondo

Herramientas

TAMAÑO
TONALIDAD
+A
subir tono+ (F4)
-A
bajar tono- (F2)
ESTO SERÁ (1)


-----------------------------------------------------
-----------------------------------------------------
-----------------------------------------------------
---------------------------------7-7-7-7-7-7-7-7-----
-5-5-5-5-5-5-5-5-2-2-2-2-2-2-2-2-5-5-5-5-5-5-5-5-----
-3-3-3-3-3-3-3-3-0-0-0-0-0-0-0-0--------------------- X2

me encantan las canciones de amor 
y aquellas que piden un mundo mejor
vivo con el miedo al dedo que alguna vez
apretará el botón

creo en la libertad 
y en mi corazon 
hay un sitio esperando por una flor
la escena me pone nervioso aunque el show debe continuar
yo soy un profesional

ESTO SERA (2)
----------------------------------
----------------------------------
----------------------------------
--5-5-5-5-5-5-5-5-7-7-7-7-7-7-7-7-
--3-3-3-3-3-3-3-3-5-5-5-5-5-5-5-5-
---------------------------------- X2

ofresco diversión baladas de amor!!
y mi coro dice, mi coro dice, mi coro dice!!!!

(1)
papapapapapapapapapapapapapapapapa
cantemos al alcohol!!!!
papapapapapapapapapapapapapapapapa
cantemos a la paz!!!!

(1) 
mis vecinos son los camiones 
y los hoteles que no me dejan reir
las penas de amor me sumergen 
en depresiones llenas de sensivilidad

(2)
ofresco ilusion
camionadas de amor!!!
y mi coro dice, mi coro dice, mi coro dice!!!!

(1)
papapapapapapappapapapapapapapapa
cantemos al alcohol!!!
papapapapapapapapapapapapapappapa
cantemos a la paz!!!!
papapapapappapapapapappapapapapapa
cantemos al alcohol!!!

un poco de alcohol hermanos, puede cambiar al mundo
cambiemoslo con este botellón!!!

cantemos al alcohol!!!!
CUALQUIER DUDA ESCRIBANME A MI CORREO, CHAO

HERRAMIENTAS ACORDESWEB:


LETRA DE LA CANCIÓN:

Ver la letra sola (sin acordes)

OTRAS VERSIONES DE LA MISMA CANCIÓN:

Ver. 2 Ver. 3 Ver. 4 Ver. 5

DESCARGAR PDF / IMPRIMIR CANCIÓN



ACORDES PARA



TOP 20: Las más tocadas de Fiskales Ad Hok