The Bleeding
Five Finger Death Punch
Acordes

Subida por Robar
 [Intro] X4

  Cm                       Cm                       Ab                      Bb
E|----3---4---3---1---1-3-----3---4---3---1---1-3--------------------------------------------------|
B|-1----1---1---1---1------1----1---1---1---1----------4----4---4---4---4-------6---6---6---6---6--|
G|--------------------------------------------------1-----1---1---1---1----1/3----3---3---3---3----|
D|-------------------------------------------------------------------------------------------------|
A|-------------------------------------------------------------------------------------------------|
E|-------------------------------------------------------------------------------------------------|

[Bridge]
Cm  Gm  Eb  Bb x2

[Chorus]
   C5                Eb5  F5  C5                Eb5  F5
e|------------------------------------------------------|
B|------------------------------------------------------|
G|------------------------------------------------------|
D|-5-5--5-5-5--5-5-5--1---3---5-5--5-5-5--5-5-5--1---3--|
A|-3-3--3-3-3--3-3-3--1---3---3-3--3-3-3--3-3-3--1---3--|
E|------------------------------------------------------|

[Verse]
Cm
I remember when
Cm
All the games began
         Ab
Remember every little lie
    Bb
And every last goodbye
Cm
Promises you broke,
Cm
Words you choked on
      Ab
And I never walked away,
             Bb
It's still a mystery to me

[Pre-Chorus]
     Cm     Cm
Well I'm so empty
    Ab
I'm better off without you
           Bb
And you're better off without me
     Cm        Cm
Well you're so unclean
    Ab
I'm better off without you
           Bb
And you're better off without me

[Chorus]
C5
The lying, the bleeding, the screaming
    Eb5  /  F5
Was tearing me apart
C5
The hatred (deceiving), the beatings;
   Eb5 / F5
It's over

[Verse]
Cm
Paint the mirrors black
Cm
To forget you
         Ab
I still picture your face
    Bb
And the way you used to taste
Cm
Roses in a glass,
Cm
Dead and wilted
         Ab
To you this all was nothing
    Bb
Everything to you is nothing

[Pre-Chorus]
     Cm        C5
Well you're so filthy
    Ab
I'm better off without you
           Bb
And you're better off without me
     Cm     Cm
Well I'm so ugly
       Ab
You're better off without me
        Bb
And I'm better off alone

[Chorus]
C5
The lying, the bleeding, the screaming
    Eb5  /  F5
Was tearing me apart
C5
The hatred (deceiving), the beatings;
   Eb5 / F5
It's over

[Bridge] 
Cm  Gm

    Eb
As wicked as you are,
        Bb             Cm  Gm
You're beautiful to me
           Eb
You're the darkest burning star,
        Bb
You're my perfect disease

[Chorus]
C5
The lying, the bleeding, the screaming
    Eb5  /  F5
Was tearing me apart
C5
The hatred , the beatings; it's over
   Eb5 / F5
Disaster
C5
The lying, the bleeding, the screaming
    Eb5  /  F5
Was tearing me apart
C5
The hatred , the beatings; it's over
   Eb5 / F5
Disaster

[Outro]
Cm                       Cm                       Ab                      Bb
e|----3---4---3---1---1-3-----3---4---3---1---1-3--------------------------------------------------|
B|-1----1---1---1---1------1----1---1---1---1----------4----4---4---4---4-------6---6---6---6---6--|
G|--------------------------------------------------1-----1---1---1---1----1/3----3---3---3---3----|
D|-------------------------------------------------------------------------------------------------|
A|-------------------------------------------------------------------------------------------------|
E|-------------------------------------------------------------------------------------------------|
                                                                             It's over now...



Cambiar Cifrado
Americano Latino

Cambiar Tonalidad
-1 +1

Partir Pantalla Imprimir FAQ

Ver solo la LETRA

+A
-A

ACORDES PARA GUITARRA

PIANO UKELELE
Cm
Ab
Bb
Gm
Eb
C5
Eb5
F5



COMENTARIOS

Aún no hay comentarios,

¡escribe el primero!

Escribe un comentario o pregunta sobre esta canción


TOP 20: Las más tocadas de Five Finger Death Punch

Ver más

Toca una Canción al Azar de Five Finger Death Punch
Cm
Ab
Bb
Gm
Eb
C5
Eb5
F5

Nuestro servidor se demoró 0.15 segundos en generar esta página. Eso fue realmente muy rápido!