Volando Bajo
Flema
Acordes

Subida por 25359209


Más Versiones
Ver. 2

Cambiar Cifrado
Americano Latino

Cambiar Tonalidad
-1 +1

Partir Pantalla Imprimir FAQ

+A
-A


Ver solo la LETRA
Aki una kancion de flema i weA!
ke sale en el disko ke me regalo mi amor... (gracias,... te amo)
no es mui konocida, pero es wena
aki les va...


Intro: D - C


D C D
Fumando solo, veo la gente pasar
D C D
tras la ventana, de algun sucio bar
D C D
Volando bajo, casi nada en realidad
D C D
Estoy muy lejos, mejor no hablar

G D
Me siento triste y sin hogar
C G D
Kizas yo nunka tuve hogar


(estos akordes deben tokarse koo arpegio)


Hay algo en la kancion, ke suena koo punteo...
pareciera ke lo hiciera una guitarra o un bajo...
bueno, es mas o menos Asi:


1|----------------------------------------------------------------|
2|----------------------------------------------------------------|
3|----------------------------------------------------------------|
4|-----4-7-4---------------4-7-4-------(y se repite --------------|
5|---5-------5-----3-2-0-5-------5------ en todos los versos)-----|
6|----------------------------------------------------------------|

y en el koro algo asi...

1|----------------------------------------------
2|----------------------------------------------
3|----------------------------------------------
4|--------------------------4-7-4---------------
5|------------------2-3---5-------5-------------
6|---3------------------------------------------
Me siento triste y sin hogar...

----------------------------------------------
----------------------------------------------
----------------------------------------------
------------------------------------4-7-4-----
-3-2-0-3--------------------2-3---5-------5---
-----------------------3----------------------
Kizas yo nunka tuve hogar



1|----------------------------------------------|
2|----------------------------------------------|
3|----------------------------------------------|
4|------------4-7-4-----------------------------|
5|---3-2-0-5--------5---------------------------|
6|----------------------------------------------|



Wenu...
espero ke les kaiga bn...



______________


Saluos pa mi kamila...

"kada dia ke pasa te kero mAs"

♥ ☺☻ ♥


P&B


_______________


Flema no ha muerto...
Ricky no ha muerto!!!!










... y ke el punk nunka muerA.


ACORDES PARA GUITARRA

PIANO UKELELE
D
C
G


COMENTARIOS

Aún no hay comentarios,

¡escribe el primero!

Escribe una pregunta, duda o comentario sobre esta canción, te responderemos a la brevedad.

Las más tocadas de Flema

Toca una Canción al Azar de Flema
D
C
G