Eres mi sueño
Fonseca
Acordes

Subida por Nefertar


Más Versiones
Ver. 2 Ver. 3 Ver. 4 Ver. 5 Ver. 6

Cambiar Cifrado
Americano Latino

Cambiar Tonalidad
-1 +1

Partir Pantalla Imprimir FAQ

+A
-A


Ver solo la LETRA
EN REALIDAD ES UN PUNTEO DEL INTRO Y LA VOZ DEL CORO.
NO HALLÉ OTRO LUGAR PARA COLOCARLO.


INTRO: (Dm Am)*2

INTRO:
e|-11-------9-11-9--------9-11-9-----------|
B|---11--11--------11--11--------11--(11v)-|
G|-----------------------------------------|
(BIS)


Dm
Donde me digas voy, donde quieras estoy

Eres la única que mueve mis sentidos por
Am Dm
Eso te quiero Y eres mi adoración oye tú

Eres mi sol Cosita linda tu sonrisa me
Am
Transforma y me lleva al cielo


PRE-ESTRIBILLO:
Por tus ojos
Dm C
Me muero Daría la vuelta al mundo entero
Bb
Y eres la razón de mis cuentos Doy gracias
Am
Al cielo, por poder quererte como yo te quiero

ESTRIBILLO:
Dm
Sueño, tú eres mi sueño
C
Ay que nadie me levante y entre tus sueños Yo quiero
Bb C
Enamorarte No soy tu dueño Sólo quiero abrazarte

INTERMEDIO: Dm C Bb C

-PRE-ESTRIBILLO-
Dm
Es que yo por ti me muero Tú eres todo lo que
Am
Quiero Y me despierto entre tus sueños Y me
Dm
Quedo en tus recuerdos (BIS)

-ESTRIBILLO-

(RITMO)

-ESTRIBILLO-

ESTRIBILLO:
Sueño, tú eres mi sueño Ay
e|----------------|
B|-4----4-4-2-4---|
G|---3----------3-|
Que nadie me levante y entre tus sueños
e|-----2-1---1----1-1---1---|
B|-4-4-----4---2------4---2-|
G|--------------------------|
Yo quiero Enamorarte
e|---1-4-2-1-2--|
B|-2-----------4|
G|--------------|
No soy tu dueño Sólo quiero abrazarte
e|----------------2-1----1---|
B|-4-4-2-4----4-4------4---2-|
G|---------3-----------------|


ACORDES PARA GUITARRA

PIANO UKELELE
Dm
Am
C
Bb


COMENTARIOS

Aún no hay comentarios,

¡escribe el primero!

Escribe una pregunta, duda o comentario sobre esta canción, te responderemos a la brevedad.

Las más tocadas de Fonseca

Toca una Canción al Azar de Fonseca
Dm
Am
C
Bb