c ▷ EL MAR: (Francisca Valenzuela) Acordes para Guitarra, Piano & Ukelele

El Mar (Acordes)

Francisca Valenzuela

Subida por brayanSra

Compartir


Imprimir FAQ
+A
-A

Texto

Desplazamiento

Transportador

Color de Fondo

Archivos

-A
+A
Hola, una pequeña colaboración...
Según yo esta afinado de forma normal eadGBE
Ahora viene


Am                   Em
 El mar murmura melodías a la luna
        C                     G
y le cuenta cuando vivía dentro de una figura azul
Am                        Em
 modelando su cuerpo de piel de seda y ojos de cristal
        C                    G
conquistaba todo el mundo al respirar


Am - Em - C - G ( x2)

RIFF 1  (CREO que se repite 2 veces acá)

1|-5-------7---5--|--5------7/8---7--|-5--------5---5---7--5-----8-7----|E
2|---5--3---------|----5-3-----------|----5--3----5---5-------5---------|B
3|----------------|------------------|----------------------------------|G
4|----------------|------------------|----------------------------------|d
5|----------------|------------------|----------------------------------|a
6|----------------|------------------|----------------------------------|e


Am                     Em
 Inútil era confesar que ella pertenecía al mar
     C                   G
y que no era nada más que agua
Am                      Em
 huyendo de la prisión dorada
   C                            G
sola llamaba para que presentará su figura azul


(Acá acompaña el RIFF 1 junto al coro(?)... es un coro según yo jajaj xD )



   RIFF 1........
    Am                       Em
Cantaba canciones a las estrellas
C                    G
perforando el cielo
      Am                 Em
recibiendo lágrimas de las
                      C               G
nubes húmedas que besaban sus labios         [x2]


(RIFF 2)
Am        Em        C         G
En verdad

RIFF 2

1|-5~--/12~--/10~---/12~---------|E
2|-5~--/12~--/10~---/12~---------|B
3|-5~--/12~--/10~---/12~---------|G          X 2
4|-------------------------------|d
5|-------------------------------|a
6|-------------------------------|e


Am                    Em
Y cantaba canciones a las estrellas
             C                     G
perforando el cielo con su tristeza
      Am                  Em
recibiendo lágrimas de las nubes húmedas
         C               G
que besaban sus labios


(Aca tenemos otroS RIFF´s, pero no estoy
 seguro de como es en realidad jajajaxD :´(  )



RIFF 3 (la tercera parte de este Riff se repite varias veces al final)

     (Parte 1 )
1|------7-----7---8---7--|E
2|-10------10------------|B
3|-----------------------|G
4|-----------------------|d
5|-----------------------|a
6|-----------------------|e

     (Parte 2)
1|------7---8--10-12-10-8-10--|E
2|10--------------------------|B
3|----------------------------|G
4|----------------------------|d
5|----------------------------|a
6|----------------------------|e

          (Parte 3)
1|----12-----12------12------12--|E
2|-10--- 10------10------10------|B
3|-------------------------------|G
4|-------------------------------|d
5|-------------------------------|a
6|-------------------------------|e




 RIFF 3....
Am                    Em
Y cantaba canciones a las estrellas
             C                     G
perforando el cielo con su tristeza
      Am                  Em
recibiendo lágrimas de las nubes húmedas
         C               G
que besaban sus labios


Am         Em     C      G   PARTE 3 del RIFF 3 (CONSTANTEMENTE)
En verdad


Am        Em     C      G   PARTE 3 del RIFF 3 y al final viene como esto:
En verdad

  1|----12----12---|----12/13p12--10p12-----12--|E
  2|-10----10------|-10------------------10-----|B



Final  =0 !!


Am  -   Em  -   C   -   G  +  RIFF 2

Am  -   Em  -   C   -   G -   Am  +  RIFF 2**


RIFF 2**
1|-/5~---/12~--/10~---/12~--|----/12~-----/17~---|E
2|-/5~---/12~--/10~---/12~--|----/12~-----/17~---|B
3|-/5~---/12~--/10~---/12~--|----/12~-----/17~---|G
4|--------------------------|--------------------|d
5|--------------------------|--------------------|a
6|--------------------------|--------------------|e


Fin


Espero que les sirva de algo esta pequeña colaboración
de una buena canción de la Fran Valenzuela
Ojala este bien los acordes y los Riff´s , Si no están correctos...
creo que se acercan jajaj xd

Aguante la Música Latina !! Salu2 Terrícolas.


Video Clip de El Mar


ACORDES PARA GUITARRA

PIANO UKELELE
Am
Em
C
G


TOP 20: Las más tocadas de Francisca Valenzuela


Acordes

Cerrar
Am
Em
C
G

21.45

x

113