It Keeps You Up (Acordes)

Generationals

Subida por jesus2003

Compartir


Imprimir FAQ
+A
-A

Texto

Desplazamiento

Transportador

Color de Fondo

Archivos

-A
+A
[Verse 1]
F              Am              Dm      C
   You are the first in your me parade
F                Am          Dm            C
  You're getting older, they stay the same.
F            Am            Dm           C
  Your funny look and your jealous eyes.
F            Am          Dm            C
  They can't relate to a thing you say.

[Bridge]
Bb
When all in all is all we are
G
May not get you very far.

[Chorus]
         F
It keeps you up at night
    Dm                     Am    
How did they buy their way into you?

F  Dm  Am

[Verse 2]
F              Am           Dm     C
  We heard you first on the radio
F           Am         Dm     C
  You complicate the material.
F            Am           Dm        C
  How can it be that we'd get there first?
         F             Am          Dm            C
It was a lie, it was a lie just to say the words.

[Bridge]
Bb
When your grass is painted green,
       G
You'll get the taste of what we mean.

Bb  G

  Bb         G
e|---------6--5-|
B|-6-6-6-8------|
G|--------------|
D|--------------|
A|--------------|
E|--------------|

[Chorus]
             F
It keeps you up at night,
     Dm                       Am
They sleep inside your living room.
         F                           Dm
You give just another diamond at the vicious sound
          Am
when it's over you.

[Bridge]
   Bb
We still remember things you said,
G
When your face was turning red.

  Bb         G
e|---------6--5-|
B|-6-6-6-8------|
G|--------------|
D|--------------|
A|--------------|
E|--------------|

[Guitar solo]
   F             Am               Dm          C
e|------------13-12-10-8--------8-------8---6--------|
B|-13-10-8-10------------8-8s10---10-10---8---10-8-6-|
G|---------------------------------------------------|
D|---------------------------------------------------|
A|---------------------------------------------------|
E|---------------------------------------------------|

   F             Am               Dm          C
e|------------13-12-10-8--------8-------|
B|-13-10-8-10------------8-8s10---10-10-|
G|--------------------------------------|
D|--------------------------------------|
A|--------------------------------------|
E|--------------------------------------|

[Bridge]
Bb
All and all is all we are
G
it may not get you very far

  Bb         G
e|---------6--5-|
B|-6-6-6-8------|
G|--------------|
D|--------------|
A|--------------|
E|--------------|

[Outro]
   F             Am               Dm          C
e|------------13-12-10-8--------8-------8---6--------|
B|-13-10-8-10------------8-8s10---10-10---8---10-8-6-|
G|---------------------------------------------------|
D|---------------------------------------------------|
A|---------------------------------------------------|
E|---------------------------------------------------|

Video Clip de It Keeps You Up


ACORDES PARA GUITARRA

PIANO UKELELE
F
Am
Dm
C
Bb
G


TOP 20: Las más tocadas de Generationals


Acordes

Cerrar
F
Am
Dm
C
Bb
G

21.56

x

306