Asa Branca

Gonzaguinha

Acordes

Luizinho De Gonzaga (0)
Subida por hanna


Más Versiones
Ver. 2 Ver. 3 Ver. 4 Ver. 5 Ver. 6

Cambiar Cifrado
Americano Latino

Cambiar Tonalidad
-1 +1

Partir Pantalla Imprimir FAQ

+A
-A
Mudar para Português

Ver solo la LETRA
(intro)


E|---1---0------------------------------------------------------------|
B|-----3---1-3-0-1---0------------------------------------------------|
G|-----------------2---0-2-0---0-0------------------------------------|
D|---------------------------2----------------------------------------|
A|--------------------------------------------------------------------|
E|--------------------------------------------------------------------|

E|---1---0------------------------------------------------------------|
B|-----3---1-3-0-1---0------------------------------------------------|
G|-----------------2---0-2-0---0-0------------------------------------|
D|---------------------------2----------------------------------------|
A|--------------------------------------------------------------------|
E|--------------------------------------------------------------------|

E|--------------------------------------------------------------------|
B|-----2-5-5-2-3-3------2-5-5-3-2------2-5-5-3-2--3-3-2-----2---------|
G|-2-4--------------2-4-----------2-2-4---------2------4-4---4-4-2-2--|
D|--------------------------------------------------------------------|
A|--------------------------------------------------------------------|
E|--------------------------------------------------------------------|

E|---1---0------------------------------------------------------------|
B|-----3---1-3-0-1---0------------------------------------------------|
G|-----------------2---0-2-0---0-0------------------------------------|G
D|---------------------------2----------------------------------------|
A|--------------------------------------------------------------------|
E|--------------------------------------------------------------------|



G C G D G
Quando oiei a terra ardeno com'a fogueira de são joão
G7 C D G
(Eu pergunte-ei a Deus do céu ai porque tamanha judiação) (repete)


E|---1---0------------------------------------------------------------|
B|-----3---1-3-0-1---0------------------------------------------------|
G|-----------------2---0-2-0---0-0------------------------------------|
D|---------------------------2----------------------------------------|G
A|--------------------------------------------------------------------|
E|--------------------------------------------------------------------|


C G D G
Qui braseio que fornaia nem um pé de prantação
G7 C D G
(por farta d'água perdi meu gado morreu de sede meu alazão)(repete)


E|---1---0------------------------------------------------------------|
B|-----3---1-3-0-1---0------------------------------------------------|
G|-----------------2---0-2-0---0-0------------------------------------|G
D|---------------------------2----------------------------------------|
A|--------------------------------------------------------------------|
E|--------------------------------------------------------------------|


C G D G
inté mesmo a asa branca bateu asas do sertão
G7 C D G
(entonce'eu disse adeus rosinha guarda contigo meu coração)(repete)


E|---1---0------------------------------------------------------------|
B|-----3---1-3-0-1---0------------------------------------------------|
G|-----------------2---0-2-0---0-0------------------------------------|G
D|---------------------------2----------------------------------------|
A|--------------------------------------------------------------------|
E|--------------------------------------------------------------------|


C G D G
hoje longe muitas léguas numa triste solidão
G7 C D G
(espero a chuva cair de novo pra mim vortá pro meu sertão)(repete)


E|---1---0------------------------------------------------------------|
B|-----3---1-3-0-1---0------------------------------------------------|
G|-----------------2---0-2-0---0-0------------------------------------|G
D|---------------------------2----------------------------------------|
A|--------------------------------------------------------------------|
E|--------------------------------------------------------------------|


C G
Quando o verde dos teus oios se espaiá na prantação
G7 C D G
(eu te asseguro não chores não viu que eu voltarei-ei viu meu coração)(repete)


E|---1---0------------------------------------------------------------|
B|-----3---1-3-0-1---0------------------------------------------------|
G|-----------------2---0-2-0---0-0------------------------------------|
D|---------------------------2------------4p5~~-----------------------|
A|--------------------------------------------------------------------|
E|--------------------------------------------------------------------|

NUEVO FORO DE MÚSICA

¿Tienes alguna duda, consulta, pregunta, consejo o algo para compartir sobre esta canción?

¡Puedes abrir un hilo en el FORO para que la comunidad te ayude! Hacer una pregunta

ACORDES PARA GUITARRA

PIANO UKELELE
G
C
D
G7


Las más tocadas de Gonzaguinha

G
C
D
G7