Vizinho Chato (Acordes)

Gustavo Mioto

Subida por Gubo37

Compartir


Cambiar Cifrado
Americano Latino

Cambiar Tonalidad
-1 +1
Imprimir FAQ
+A
-A

Texto

Desplazamiento

Transportador

Color de Fondo

Archivos

TONALIDAD, TAMAÑO, CIFRADO, SCROL.

Nos renovamos: Ahora puedes cambiar TODO haciendo clic en ICONO de la Guitarra () que aparece en la parte inferior de esta página.


LETRA CON ACORDES

[Intro] A9  B9  G#m  C#m7   

E|------------------------------------------|
B|---------4/5------------------------------|
G|-2/4-4-4-----4/6-6--------4-4-4-4---------|
D|--------------------4/6-6-----------------|
A|------------------------------------------|
E|------------------------------------------|

E|------------------------------------------|
B|-------5/7-4-4----------------------------|
G|-4-4-4------------------------------------|
D|------------------------------------------|
A|------------------------------------------|
E|------------------------------------------|

E|------------------------------------------|
B|-4-5-4h5p4--------------------------------|
G|-----------6-4-4h6-4----------------------|
D|---------------------6p4-42--------------|
A|------------------------------------------|
E|------------------------------------------|

[Primeira Parte]
 
              E                      B9
Boa noite, vizinha, não quero incomodar 
             C#m7               B9                A9
Por acaso teria uma xícara de açúcar? esqueci de comprar 
             E                  B9
Ando meio sozinho cozinhando demais 
                  C#m7        B9               A9
Na verdade eu queria a felicidade que ali não tem mais 

[Pré-Refrão]

              F#m              B9
Se não for pedir muito, me convida pra entrar 
                  E/G#             G#m                                         
Na verdade eu queria só um ombro amigo pra 
     A9
Desabafar 
                       
        E/G#     F#m
Não precisa ter pena de mim 
           B9
Já faz um tempo que eu tô assim 

[Refrão]

          A9               B9
Só me faz um favor pra eu dormir sossegado 
        G#m             C#m7
Só não faz amor que eu sofro aqui do lado 
       A9               B9
Vai dizer que eu sou o seu vizinho chato 
   G#m           C#m7
Entende meu lado

          A9               B9
Só me faz um favor pra eu dormir sossegado 
        G#m             C#m7
Só não faz amor que eu sofro aqui do lado 
       A9               B9
Vai dizer que eu sou o seu vizinho chato 
   G#m           C#m7
Entende meu lado

           A9              B9                C#m7
É como rasgar uma nota de cem pra quem conta os centavos

[Solo] A9  B9  G#m  C#m7   

E|------------------------------------------|
B|---------4/5------------------------------|
G|-2/4-4-4-----4/6-6--------4-4---4---------|
D|--------------------4/6-6-----6-----------|
A|------------------------------------------|
E|------------------------------------------|

E|------------------------------------------|
B|-------5/7-4-4----------------------------|
G|-4-4-4------------------------------------|
D|------------------------------------------|
A|------------------------------------------|
E|------------------------------------------|

E|------------------------------------------|
B|-4-5-4h5p4----------------5/7-7-----------|
G|-----------6-4-4h6-4----------------------|
D|---------------------6p4------------------|
A|------------------------------------------|
E|------------------------------------------|

[Pré-Refrão]

              F#m              B9
Se não for pedir muito, me convida pra entrar 
                  E/G#             G#m                                         
Na verdade eu queria só um ombro amigo pra 
     A9
Desabafar 
                       
                 F#m
Não precisa ter pena de mim 
           B9
Já faz um tempo que eu tô assim 

[Refrão]

          A9               B9
Só me faz um favor pra eu dormir sossegado 
        G#m             C#m7
Só não faz amor que eu sofro aqui do lado 
       A9               B9
Vai dizer que eu sou o seu vizinho chato 
   G#m           C#m7
Entende meu lado

          A9               B9
Só me faz um favor pra eu dormir sossegado 
        G#m             C#m7
Só não faz amor que eu sofro aqui do lado 
       A9               B9
Vai dizer que eu sou o seu vizinho chato 
   G#m           C#m7
Entende meu lado

           A9              B9                C#m7
É como rasgar uma nota de cem pra quem conta os centavos
           A9              B9                C#m7
É como rasgar uma nota de cem pra quem conta os centavos

Video Clip de Vizinho Chato


ACORDES PARA GUITARRA

PIANO UKELELE
A9
B9
G#m
C#m7
E
F#m
E/G#


TOP 20: Las más tocadas de Gustavo Mioto


Acordes

Cerrar
A9
B9
G#m
C#m7
E
F#m
E/G#

12.11

x

115