Deus Meu

Heloísa Rosa

Acordes

Confiança (2011)
Subida por Myky3096


Más Versiones
Ver. 2 Ver. 3 Ver. 4 Ver. 5 Ver. 6

Cambiar Cifrado
Americano Latino

Cambiar Tonalidad
-1 +1

Partir Pantalla Imprimir FAQ

+A
-A
Mudar para Português

Ver solo la LETRA
[Intro] Am9  G
Am9 G
Am9 G
Am9 G

Am9 G
E|---------------------------------------------|
B|---------------------------------------------|
G|--2/4/2---------2-----2/4/2-----------2------|
D|--------5/2-2/5-------------5/--0--5---------|
A|---------------------------------------------|
E|---------------------------------------------|

Am9 G
E|---------------------------------------------|
B|---------------------------------------------|
G|--2/4/2---------2-----2/4/2-----------2------|
D|--------5/2-2/5-------------5/--0--5---------|
A|---------------------------------------------|
E|---------------------------------------------|

Am9 G
Envia tua luz, tua verdade oh Deus
Am9 G
Para que me guiem
Am9 G
Leva-me ao teu santo monte
Am9 G G D/F# Em
E aos teus tabernaculos

Em D C D
Eu irei ao altar de Deus
Em Bm C D
De Deus que é a minha grande alegria
Em D C D
Ao som da harpa eu te adorarei
Em Bm C D
Pois tu és o meu Deus

G G/B C D G
Porque estás abatida oh minh'alma
G/B C D
E te perturbas dentro de mim
G G/B C D G
Espera em Deus, pois ainda o louvarei
G/B C D
Ele é o meu auxilio e
Am G Am G
Deus meu... Deus meu

Am9 G
E|---------------------------------------------|
B|---------------------------------------------|
G|--2/4/2---------2-----2/4/2-----------2------|
D|--------5/2-2/5-------------5/--0--5---------|
A|---------------------------------------------|
E|---------------------------------------------|

Am9 G
E|---------------------------------------------|
B|---------------------------------------------|
G|--2/4/2---------2-----2/4/2-----------2------|
D|--------5/2-2/5-------------5/--0--5---------|
A|---------------------------------------------|
E|---------------------------------------------|

Am9 G
Envia tua luz, tua verdade oh Deus
Am9 G
Para que me guiem
Am9 G
Leva-me ao teu santo monte
Am9 G G D/F# Em
E aos teus tabernaculos

Em D C D
Eu irei ao altar de Deus
Em Bm C D
De Deus que é a minha grande alegria
Em D C D
Ao som da harpa eu te adorarei
Em Bm C D
Pois tu és o meu Deus

G G/B C D G
Porque estás abatida oh minh'alma
G/B C D
E te perturbas dentro de mim
G G/B C D G
Espera em Deus, pois ainda o louvarei
G/B C D
Ele é o meu auxilio e
Em Bm C D Em Bm C D
Deus meu Deus meu

Em Bm
Ele é o meu auxilio e Deus meu
C D
Ele é o meu auxilio e Deus meu

NUEVO FORO DE MÚSICA

¿Tienes alguna duda, consulta, pregunta, consejo o algo para compartir sobre esta canción?

¡Puedes abrir un hilo en el FORO para que la comunidad te ayude! Hacer una pregunta

ACORDES PARA GUITARRA

PIANO UKELELE
Am9
G
D/F#
Em
D
C
Bm
G/B
Am


Las más tocadas de Heloísa Rosa

Am9
G
D/F#
Em
D
C
Bm
G/B
Am