Vaidade
Heloísa Rosa
Acordes

Subida por eduardo
Álbum: Estante da Vida ( 2008)



Otras Versiones

Cambiar Cifrado
Americano Latino

Cambiar Tonalidad
-1 +1

Partir Pantalla Imprimir FAQ

+A
-A
Mudar para Português
LETRA CON ACORDES
[Intro] A9  E  C#m  B9
A9 E C#m B9

E|-------------------------------------------------|
B|---5---5/7--7/9--5---5/7--7/9---5--5/7--7/9------|
G|----4-------------4--------------4---------8-----|
D|-------------------------------------------------|
A|-------------------------------------------------|
E|-------------------------------------------------|

[Primeira Parte]

E A9
Busco na vida tantas coisas
E
Que nem sei porque razão
A9
Fortaleço minha vontade
E A9
Pra que tudo aconteça, do meu jeito
E A9
Corro enquanto acredito
E
Persisto até chegar ao fim
A9
Pra descobrir lá no final
E A9
Que eu corri atrás do vento

[Pré-Refrão]

F#m E B9
O que eu preciso, os homens não podem dar
F#m E B9
O que eu preciso, a prata não vai comprar
F#m E B9
O que eu preciso, o mundo não pode dar
F#m E A9 B9
O que eu preciso, é habitar contigo, Oh Deus!

[Refrão]

E A9
Atraia-me, para perto de Ti
F#m E B9
Esconda-me, Oh Deus!
E A9
Atraia-me, para perto de Ti
C#m B9
Esconda-me, oh Deus
E A9
Atraia-me, para perto de Ti
F#m E B9
Esconda-me, Oh Deus!
E A9
Atraia-me, para perto de Ti
C#m B9
Esconda-me, oh Deus

[Solo] A9 E C#m B

E|-------------------------------------------------|
B|-------------------------------------------------|
G|-9-9-9-9-9-9-9-9-9-9-9-11-11-11-11-13-13-13-13---|
D|-------------------------------------------------|
A|-------------------------------------------------|
E|-------------------------------------------------|

A9
Esconda-me, Senhor!
E
Esconda-me!
C#m B9
Esconda-me, Senhor!

[Solo] A9 E C#m B9

E|-------------------------------------------------|
B|-------------------------------------------------|
G|-9-9-9-9-9-9-9-9-9-9-9-11-11-11-11-13-13-13-13---|
D|-------------------------------------------------|
A|-------------------------------------------------|
E|-------------------------------------------------|

A9
Esconda-me do Pecado!
E C#m B9
Esconda-me deste Mundo
A9 E C#m B9
Esconda-me, Senhor!

[Final] A9 E C#m B9

E|-------------------------------------------------|
B|---5---5/7--7/9--5---5/7--7/9---5--5/7--7/9------|
G|----4-------------4--------------4----------8----|
D|----------------------------------------------9--|
A|-------------------------------------------------|
E|-------------------------------------------------|

ACORDES PARA GUITARRA

PIANO UKELELE
A9
E
C#m
B9
F#m
B



COMENTARIOS

Aún no hay comentarios,

¡escribe el primero!

Escribe un comentario o pregunta sobre esta canción


TOP 20: Las más tocadas de Heloísa Rosa

Ver más

Toca una Canción al Azar de Heloísa Rosa
A9
E
C#m
B9
F#m
B

Nuestro servidor se demoró 0.03 segundos en generar esta página. Eso fue realmente muy rápido!