Fuck Racist
I.R.A.
Acordes

Subida por pajaritocantor


Más Versiones
Ver. 2 Ver. 3

Cambiar Cifrado
Americano Latino

Cambiar Tonalidad
-1 +1

Partir Pantalla Imprimir FAQ

+A
-A
Trascripcion por.
Mauricio Parra([email protected])
Diego Velez([email protected])

esta tab no esta muy buena la letra,pero hay se va.

INTRO:
A B D
E|----------------------|
B|----------------------|
G|------------7-7-7-7-7-|
D|-7-7--7-9-9-7-7-7-7-7-|
A|-7-7--7-9-9-5-5-5-5-5-|
E|-5-5--5-7-7-----------|

A B D
Ballo patinao pateli yale y que
A B D
america madmodel para saveposleeps
A B D
fuck racist

A G B A
I am sings this songs
A G B A
for desprecial punk people
A G B A
now geinomol
A G B A
drago geinomol
A G B A
discrimination now
A G B A
now war geinomol

INTERMEDIO
C
E|----------------| SKATEROCK
B|----------------|
G|-5-5-5-5-5-5-5-5|
D|-5-5-5-5-5-5-5-5|
A|-3-3-3-3-3-3-3-3|
E|----------------|

A B D
E|----------------------|
B|----------------------|
G|------------7-7-7-7-7-|
D|-7-7--7-9-9-7-7-7-7-7-|
A|-7-7--7-9-9-5-5-5-5-5-|
E|-5-5--5-7-7-----------|



A B D
yo no se porq algunos pensaran
A B D
q el sueño americano no los desearan
A B D
se equivocan

A G B A
cantamos esta cancion
A G B A
para gente punkera
A G B A
gente sin odio
A G B A
senofovia no
A G B A
discrinacion no
A G B A
guerra sin razon


INTERMEDIO FINAL
C
E|----------------|
B|----------------| RUFFUZ
G|-5-5-5-5-5-5-5-5|
D|-5-5-5-5-5-5-5-5|
A|-3-3-3-3-3-3-3-3|
E|----------------|


ACORDES
A G B D
X X X X
X X X X
X X X 7
7 5 9 7
7 5 9 5
5 3 7 X


Mauricio Parra([email protected])
Diego Velez([email protected])

esta tab no esta muy buena la letra,pero hay se va.


ACORDES PARA GUITARRA

PIANO UKELELE
A
B
D
G
C


COMENTARIOS

Aún no hay comentarios,

¡escribe el primero!

Escribe una pregunta, duda o comentario sobre esta canción, te responderemos a la brevedad.

Las más tocadas de I.R.A.

Toca una Canción al Azar de I.R.A.
A
B
D
G
C