c ▷ ITS ALL UNDERSTOOD: (Jack Johnson) Acordes para Guitarra, Piano & Ukelele

Its All Understood (Acordes)

Jack Johnson

Subida por milena021

Compartir


Imprimir FAQ
+A
-A

Texto

Desplazamiento

Transportador

Color de Fondo

Archivos

-A
+A
Riff 1
e|-----------------------------------------------|
B|-----------------------------------------------|
G|-------12-----------------------11-------------|
D|----12----12--------12-------11----11------9---|
A|-10--------------12----12--9-------------9---9-|
E|--------------10-----------------------7-------|

(Riff 2)01:20/01:36
e|-----------------------------|
B|-----------------------------|
G|-12--11-------11-------------|
D|-12--12----11----11------9---|
A|-10--12--9-------------9---9-|
E|-----10--------------7-------|

(Riff 3)01:44
e|-------------|------------|------------|-----7---|
B|-------12----|------------|------------|---7---7-|
G|-12-------12-|------11----|------11----|---------|
D|----12-------|-12------12-|---11----11-|-9-------|2x
A|-10----------|----12------|-9----------|---------|
E|-------------|-10---------|------------|-7-------|

(Riff 4)02:00
e|---------------|-------------------------------|
B|---------------|-------------------------------|
G|-12------11----|-12------11--------------------|
D|-12--12--11--9-|-12--12--11--9----9------------|
A|-10--12--9---9-|-10--12--9-----10---12-9-12-10-|
E|-----10------7-|-----10------------------------|

(Riff 5)02:16
e|------------------------------------------------|
B|------------------------------------------------|
G|-12----12-----------12-------11----11-----------|
D|-12-12----12--12-----------11-11----11--9---9---|
A|-10-----------12-12----12--9------------9-9---9-|
E|--------------10------------------------7-------|

(Riff 6)02:48
e|----------------------------|---------------|
B|----------------------------|---------------|
G|-12------11-----------------|-12------11----|
D|-12--12--11--9----9---------|-12--12--11--9-|
A|-10--12--9-----10---12-9-12-|-10--12--9---9-|
E|-----10---------------------|-----10------7-|

(Riff 7)03:04
e|------------------------------------------------|
B|------------------------------------------------|
G|-12----12-----------12-------11----11-----------|
D|-12-12----12--12-----------11-11----11--9---9---|
A|-10-----------12-12----12--9------------9-9---9-|
E|--------------10------------------------7-------|

(Riff 1)03:19


(Riff 8)03:19
e|----------------------------------------|
B|----------------------------------------|
G|----------------------------------------|
D|------------------------------------9---|
A|-10----10-9-----------9----9~-----9---9-|
E|----10-------10-5-10----10------7-------|

03:28
Riff1

(Riff 9)03:35
e|------------------------------------------------|
B|------------------------------------------------|
G|-12----12-----------12-----11----11-------------|
D|-12-12----12--12-----------11-11----11--9---9---|
A|-10-----------12-12----12--9------------9-9---9-|
E|--------------10------------------------7-------|



Riff 1
Everyone laughed at her joke 
As if they'd never even heard it before 
And maybe they were truly amused 
But every word that she spoke was a bore 
And maybe it's because they had seen 
The previews on the TV screen 
Well this part is good and that's well understood 
So you should laugh if you know what I mean 

                      Riff 2
But it's all relative 
Even if you don't understand 
                        Riff 1
Well it's all understood 
Especially when you don't understand 
                          Riff 2
Then it's all just because 
Even if we don't understand 
                            Riff 3
Then lets all just believe 

Riff 4
Everyone knows what went down 
Because the news was spread all over town 
And fact is only what you believe 
And fact and fiction work as a team 
            Riff 5
It's almost always fiction in the end 
That content begins to bend 
When context is never the same 

And it's all relative 
Even if we don't understand 
And that's well understood 
Especially when we don't understand 
Then it's all just because 
Even if we don't understand 
                    Riff 6
Then lets all just believe 

I was reading a book 
Or maybe it was a magazine 
Suggestions on where to place faith 
Suggestions on what to believe 
    Riff 7
But I read somewhere 
That you've got to beware 
You can't believe anything you read 
But the good Book is good 
And that's well understood 
So don't even question 
If you know what I mean 

                Riff 8
But it's all relative 
Even if you don't understand 
                        Riff 1
Well it's all understood 
Especially when you don't understand 
                        Riff 9
And it's all just because 
Even if we don't understand 
Then lets all just believe 

But there you go once again 
You missed the point and then you point 
Your fingers at me 
And say that I said not to believe 
I believe 
I guess 
I guess it's all relative

Video Clip de Its All Understood


ACORDES PARA GUITARRA

PIANO UKELELE


TOP 20: Las más tocadas de Jack Johnson


Acordes

Cerrar

22.01

x

148